» » »

I Saw Your Mommy.. Bass tabs (ver.1)

Artists:  A B C D E F G H I J K L M N O P Q R S T U V W X Y Z # 

I Saw Your Mommy.. Bass tabs (ver.1)

Suicidal Tendencies
Rating:
0/5 (0 votes)

Hard to play? Try these video lessons and learn fast.
                Suicidal Tendencies
    "I Saw Your Mommy"
    
    
    Bass Intro:
    G |--------------|-----------|--------------|------------|
    D |--------------|-----------|--------------|------------|
    A |-5-5----------|-77--------|-7-7----------|-99-----789-|
    E |-----0-3-3--0-|----0-5-555|-----0-5-5--0-|----0-7-----|
    
    
    Generic Bass Line (the chord progression)
    G |--------------|-----------|--------------|------------|
    D |--------------|-----------|--------------|------------|
    A |-7-7----------|------2-22-|-7-7----5-6-7-|-99---------|
    E |-----0-5-5--0-|-22-0-----0|-----0-5------|----0-7-777-|


    Alternative Bass Line (the chord progression)
    G |--------------|-----------|--------------|------------|
    D |--------------|-----------|--------------|------------|
    A |-7-7----------|------2-222|--------0--00-|-----2-222--|
    E |-----0-5-5--0-|-22-0------|-0--00--------|-222--------|


    Refrain
    G |-----------------|-----------------|-------------|-------------|
    D |-----------------|-----------------|-1--3--1--3--|-1--3--1--3--|
    A |-3-0-5-0-3-0-5-0-|-3-0-5-0-3-0-5-0-|--3--3--3--3-|--3--3--3--3-|
    E |-----------------|-----------------|-------------|-------------|
    
    
    Refrain
    G |-----------|-----------|------------|------------------|
    D |-----------|-----------|------------|-----------6-4----|
    A |-4444------|-5555------|-4444-------|-5555----------6-4|
    E |------5555-|------4444-|-------5555-|-------4-4--------|
            
Hard to play? Try these video lessons and learn fast. | Correct




comments powered by Disqus
↑ Back to top | Tablatures and chords are parodies/interpretations of the original songs. You may use it for private study, scholarship, research or language learning purposes only