>
 >
I Saw Your Mommy..

I Saw Your Mommy.. Guitar Tabs

Suicidal Tendencies - I Saw Your Mommy.. chords, tabs, tablatures, lyrics

Guitar lessons | Add/correct | Request | Top 50 tabs Artists:  A B C D E F G H I J K L M N O P Q R S T U V W X Y Z 0-9

I Saw Your Mommy.. Guitar Tabs – Suicidal Tendencies

CD, Sheet music, Poster

Do you like I Saw Your Mommy..? Share with your friends now
Bass TabsBass Tabs v2ChordsTabs
Band:  Suicidal Tendencies

Copyright (c)  (Virgin) (1983)
Version 1.0 - (09/06/05)





.  - palm mute           /  - slide up to
\  - slide down to       ~  - vibrato
h  - hammer on           b  - Bend
p  - pull off            Suffixes for bend
t  - tap                 f  - full bend    h - half bend
ph - pinched harmonic    q  - quarter bend t - tap bend
*  - see comment         ^  - Hold bend    r release bend
x  - Stuccatto           ~  - vibrato bend
,  - slight palm mute    () - ghost note, sustained note
"  - tremolo note        <> - Harmonics

Tunning E A D G B E
 
 Intro

 Bass on own

  Guitar 1
   ~~~~~~~~~~~~  ~~~~~~~~  ~~~~~~   ~~~~
E[------------------------------------------|
B[-12-12--12-12--5-5--5-5--7-7---7-10b------|
G[----12b----12b\--7b---7b---9b-------------|
D[------------------------------------------|
A[------------------------------------------|
E[------------------------------------------|
 [Guitar 2
E[---0--------------------------------------|
B[---0--------------------------------------|
G[-9-------------2--2-2-2----------4--4-4-4-|
D[-9-------------2--2-2-2--4--4-4--4--4-4-4-|
A[-7-------------0--0-0-0--4--4-4--2--2-2-2-|
E[-------------------------2--2-2-----------|

  Guitar 1
   
E[-12-12-12-12\--0-0-0-0--------------------|
B[-12-12-12-12\--10101010/12121212-0--(0)---|
G[---------------9-9-9-9-/11111111----------|
D[------------------------------------------|
A[------------------------------------------|
E[------------------------------------------|
 [Guitar 2
E[---0--------------------------------------|
B[---0--------------------------------------|
G[---------------2--2-2-2----------4--4-4-4-|
D[-2-------------2--2-2-2--4--4-4--4--4-4-4-|
A[-2-------------0--0-0-0--4--4-4--2--2-2-2-|
E[-0-----------------------2--2-2-----------|

  Guitar 1
   ~~~~~~~~~~~~  ~~~~~~~~  ~~~~~~   ~~~~~~~~~~~
E[-----------------------------------10--------|
B[-12-12--12-12--5-5--5-5--7-7--7-10b--10rp8---|
G[----12b----12b\--7b---7b---9b--------------9-|
D[---------------------------------------------|
A[---------------------------------------------|
E[---------------------------------------------|
 [Guitar 2
E[---0-----------------------------------------|
B[---0-----------------------------------------|
G[---------------2--2-2-2----------4--4-4-4----|
D[-2-------------2--2-2-2--4--4-4--4--4-4-4----|
A[-2-------------0--0-0-0--4--4-4--2--2-2-2----|
E[-0-----------------------2--2-2--------------|

  Guitar 1
                                          ~~~~~~~~~~~~
E[---12-12-12-12/--17-17-17-17/--19-19-19-17fb--17fbr\-|
B[-12-12-12-12--/17-17-17-17--/19-19-19----------------|
G[-----------------------------------------------------|
D[-----------------------------------------------------|
A[-----------------------------------------------------|
E[-----------------------------------------------------|
 [Guitar 2
E[---0-------------------------------------------------|
B[---0-------------------------------------------------|
G[---------------2---2--2--2--------------4--4--4--4---|
D[-2-------------2---2--2--2---4---4--4---4--4--4--4---|
A[-2-------------0---0--0--0---4---4--4---2--2--2--2---|
E[-0---------------------------2---2--2----------------|


 Main / Verse Riff

E---0-------------------------|
B---0-------------------------|
G------2-2-2-2-------4--4-4-4-|
D-2----2-2-2-2-4-4-4-4--4-4-4-|
A-2----0-0-0-0-4-4-4-2--2-2-2-|
E-0------------2-2-2----------|

 Riff A

E------------------------------|
B------------------------------|
G-------2-2-2-2-------4--4-4-4-|
D-2-2-2-2-2-2-2-4-4-4-4--4-4-4-|
A-2-2-2-0-0-0-0-4-4-4-2--2-2-2-|
E-0-0-0---------2-2-2----------| Rpt 2 X

 Riff B

E------------------------------------------|
B------------------------------------------|
G-------2-2-2-2-------4--4p2p0-------------|
D-2-2-2-2-2-2-2-4-4-4-4--------4p2p0-------|
A-2-2-2-0-0-0-0-4-4-4-2--------------4p2p0-|
E-0-0-0---------2-2-2----------------------|

 Rpt above structure

 Rpt Riff A 2 X

 Bridge

E--------|
B--------|
G-5--7---|
D-522722-|
A-300500-|
E--------| Rpt 4 X

E-------------|
B-------------|
G-8----10-----|
D-81010101010-|
A-610108-1010-|
E--8-8---88---| Rpt 4 X

 Chorus

E-------------------------------------------------------------------|
B-------------------------------------------------------------------|
G-8-8-8-8-8-8-8-8-6-6-6-6-6-6-6-6/1111111111111111\5-5-5-5-5-5-5-5--|
D-11111111111111117-7-7-7-7-7-7-7/1212121212121212\6-6-6-6-6-6-6-6--|
A-11111111111111117-7-7-7-7-7-7-7/1212121212121212\6-6-6-6-6-6-6-6--|
E-9-9-9-9-9-9-9-9\5-5-5-5-5-5-5-5/1010101010101010\4-4-4-4-4-4-4-4--|

  Guitar 1
E[-------------------------------------------------------------------|
B[-------------------------------------------------------------------|
G[-8-8-8-8-8-8-8-8-6-6-6-6-6-6-6-6/1111111111111111\5----------------|
D[-11111111111111117-7-7-7-7-7-7-7/1212121212121212\6-------6--------|
A[-11111111111111117-7-7-7-7-7-7-7/1212121212121212\6-------6--------|
E[-9-9-9-9-9-9-9-9\5-5-5-5-5-5-5-5/1010101010101010\4-------4--------|
 [Guitar 2
 [                                                   ~~~~~~~~~~~~~~~
E[-------------------------------------------------------------------|
B[-------------------------------------------------------------------|
G[--------------------------------------------------8b------8b-----8\|
D[-------------------------------------------------------------------|
A[-------------------------------------------------------------------|
E[-------------------------------------------------------------------|

 Rpt Verse

 Additional guitar 2nd time

E------<7>-<5>--0--|
B---<7>---------0--|
G-<7>--------------|
D------------------|
A------------------|
E------------------|

 Rpt Bridge and Chorus
 Rpt Verse
 Rpt Bridge and Chorus

 Rpt intro solo

E-------12-------12-------12-------12-------12------12-15-14-12-|
B---------------------------------------------------------------|
G-12-13----12-13----12-13----12-13----12-13----12-13------------|
D---------------------------------------------------------------|
A---------------------------------------------------------------|
E---------------------------------------------------------------|
     h                 h     h
E-10-12p10-12---------------------------------|
B-------------15-14-14-15p14-15p14-12-10\8----|
G------------------------------------------9--|
D---------------------------------------------|
A---------------------------------------------|
E---------------------------------------------|
                                                         ~~~~~~~~
E-------------------------------------------------------------------|
B----------14----------14-----------12-----12----12---12------------|
G-14p12-------12----------12----14fb---14fb---14fb-14fb-14fb-----r--|
D-------14-------14-12-------14-------------------------------------|
A-------------------------------------------------------------------|
E-------------------------------------------------------------------|
    h     h
E-----------------4---3---2-------------|
B-----5-----5------------------10----12-|
G-3-4---2-3---2/4--\3--\2---------------|
D---------------------------/7----/9----|
A---------------------------------------|
E---------------------------------------|

 Rpt Riff B

E--------------------------------|
B--------------------------------|
G-------2-2-2-2-------4--4-4b-4b-|
D-2-2-2-2-2-2-2-4-4-4-4--4-------|
A-2-2-2-0-0-0-0-4-4-4-2--2-------|
E-0-0-0---------2-2-2------------|

 Rpt Riff A 2 X

E----------------------------------|
B----------------------------------|
G-------2-2-2-2-------4------------|
D-2-2-2-2-2-2-2-4-4-4-4------------|
A-2-2-2-0-0-0-0-4-4-4-2------------|
E-0-0-0---------2-2-2--------------| 

     [PM]          [-PM-]
E------------------------------------|
B------------------------------------|
G---------2-2-2-2---------4----------|
D-2-2-----2-2-2-2-4-------4----------|
A-2-2-----0-0-0-0-4-------2----------|
E-0-0-0-0---------2-2-2-2------------| Rpt




END





Comments


Popular Suicidal Tendencies tabs & chords
I Saw Your Mommy.. 1 Bass Tabs
Looking In Your Eyes Bass Tabs
Naked Bass Tabs
Built To Survive Tabs
Cyco Vision Tabs
Goin Breakdown 1 Tabs
Institutionalized 4 Tabs
Nobody Hears Tabs
Possessed To Skate 1 Tabs
Suicidal Maniac Tabs


Song lyrics



↑ Back to top | Tablatures and chords are parodies/interpretations of the original songs. You may use it for private study, scholarship, research or language learning purposes only
© 2014 AZChords.com Contact us | Privacy policy | DMCA | Add/correct tabs | Request tabs | Top 50 tabs