» » »

Institutionalized Bass tabs (ver.3)

Artists:  A B C D E F G H I J K L M N O P Q R S T U V W X Y Z # 

Institutionalized Bass tabs (ver.3)

Suicidal Tendencies
Rating:
4/5 (1 vote)

Hard to play? Try these video lessons and learn fast.
                Tuning: Standard


|------------|
|------------|
|-2-22-3--33-|
|------------|x29


|-----------|
|-----------|
|-2222-3333-|
|-----------|x4

|----------------------------|
|----------------------------|
|----------------------------|
|-2222222222222222-5555-4444-|

|--------------------|
|--------------------|
|--------------------|
|-22222222-5555-4444-|x2

|-----------|
|-----------|
|-2222-3333-|
|-----------|x4

|-----------|
|-----------|
|-2~--------|
|-----------|


|------------|
|------------|
|-2-22-3--33-|
|------------|x29


|-----------|
|-----------|
|-2222-3333-|
|-----------|x4

|----------------------------|
|----------------------------|
|----------------------------|
|-2222222222222222-5555-4444-|

|--------------------|
|--------------------|
|--------------------|
|-22222222-5555-4444-|x2

|-----------|
|-----------|
|-2222-3333-|
|-----------|x4

|-----------|
|-----------|
|-2~--------|
|-----------|


|------------|
|------------|
|-2-22-3--33-|
|------------|x27


|-----------|
|-----------|
|-2222-3333-|
|-----------|x4

|----------------------------|
|----------------------------|
|----------------------------|
|-2222222222222222-5555-4444-|

|--------------------|
|--------------------|
|--------------------|
|-22222222-5555-4444-|x2

|-----------|
|-----------|
|-2222-3333-|
|-----------|x4

|-----------|
|-----------|
|-2~--------|
|-----------|

|-----------|
|-----------|
|-2\--------|
|-----------|
            
Hard to play? Try these video lessons and learn fast. | Correct




comments powered by Disqus
↑ Back to top | Tablatures and chords are parodies/interpretations of the original songs. You may use it for private study, scholarship, research or language learning purposes only