» » »

Suicidal Tendencies, Institutionalized Tabs (ver.3)

Artists:  A B C D E F G H I J K L M N O P Q R S T U V W X Y Z # 

Institutionalized Tabs (ver.3)

Suicidal Tendencies Tabs
 Rating:
4/5 (14 votes)
Institutionalized lessons Tabs too difficult? Try these video lessons and learn fast
1
                I think I’m the only guy to tab the Institutionalized solo. There might be some mistakes 
I just type it in instead of tabbing it. When you start playing the power chords again the tempo speeds up.

Standard tuning: EADGBe

h=hammer on
p=pull of
tr=trill
~~=vibrato
\=slide down

First verse
|----------------------------------------------|
|----------------------------------------------|
|----------------------------------------------|
|---------------------9--9-9-10-1010-----------|
|-9--9-9--10-10-10-10-7--7-7-8--8-8-----2h3h5--|
|-7--7-7--8--8--8-8------------------5--------2|

|------8---8---7-----8---8---7---8---8---7-----8---8-|
|-7--8---8---7---7-8---8---7---8---8---7---7-8---8---|
|----------------------------------------------------|
|----------------------------------------------------|
|----------------------------------------------------|
|----------------------------------------------------|

|-------------------------------------------------------|
|-------------------------------------------------------|
|4444444444444444444444444444775544444444444444555777888|
|-------------------------------------------------------|
|-------------------------------------------------------|
|-------------------------------------------------------|

|------------------------------------------------------------|
|------------------------------------------------------------|
|444444444444455777844444444h5h7p4-4h5h7-4h5h7-4h5h7-4h5h7---|
|------------------------------------------------------------|
|------------------------------------------------------------|
|¬-----------------------------------------------------------|

|-------------------------------------------------------|
|-------------------------------------------------------|
|-4h5h7-4h5h7-5h7h8-5h7h8-5h7h8-5h7h8-5h7h8-5h7h8-5h7h8-|
|-------------------------------------------------------|
|-------------------------------------------------------|
|-------------------------------------------------------|

|------------------------------------------------------|
|------------------------------------------------------|
|5h7h8-5h7h8p7h8p5-5h7h8-5h7h8-5h7h8-5h7h8-5h7h8-5h7h8-|
|------------------------------------------------------|
|------------------------------------------------------|
|------------------------------------------------------|

|5h7p5p3h5p3p2h5p3p2h3p2p0h3p2p0---------------|
|----------------------------------------------|
|-------------------------------7-5-4-4--4-7-5-|
|----------------------------------------------|
|----------------------------------------------|
|----------------------------------------------|

|-----------------------------------------|
|-----------------------------------------|
|4-4-4-4-5-4-7-4-7-4-5-4-5-4-7-4-9-4-5-4-5|
|-----------------------------------------|
|-----------------------------------------|
|-----------------------------------------|

|7h8p7p5-5h7p5p3-5h7p5p3-3h5p3p2-3-2-2-2--------|
|----------------------------------------3-0-3-0|
|-----------------------------------------------|
|-----------------------------------------------|
|-----------------------------------------------|
|-----------------------------------------------|

|------------------------------------------|
|------------------------------------------|
|------------------------------------------|
|------------------------------------------|
|-9--9-9--10-10-10-10--9--9-9--10-10-10-10-|
|-7--7-7--8--8--8-8----7--7-7--8--8--8-8---|

Pre-chorus
|-------------------------|
|-------------------------|
|-------------------------|
|--9-----10-----9-----10--|x2
|9-7-9-108-10-9-7-9-108-10|
|7---7-8---8--7---7-8---8-|

Chorus
|----------------------------------------22\----|
|-----------------------------------------------|
|-----------------------------------------------|
|-----------------------------------------------|
|4-4-4-4-4-4-4-4-7-7-7-7-6-6-6-6-4-4-4-4--------|
|2-2-2-2-2-2-2-2-5-5-5-5-4-4-4-4-2-2-2-2--------|

|-----------------------------------------------|
|-----------------------------------------------|
|-----------------------------------------------|
|-----------------------------------------------|
|7-7-7-7-6-6-6-6-4-4-4-4-4-4-4-4-7-7-7-7-6-6-6-6|
|5-5-5-5-4-4-4-4-2-2-2-2-2-2-2-2-5-5-5-5-4-4-4-4|

Post chorus
|-------------------------|
|-------------------------|
|-------------------------|
|--9-----10-----9-----10--|x2
|9-7-9-108-10-9-7-9-108-10|
|7---7-8---8--7---7-8---8-|

|-----------------------------|
|-----------------------------|
|-----------------------------|
|-----------------------------|
|9~~~~~~~~~~~~~~~~~~~~~~~~~~~~|
|7~~~~~~~~~~~~~~~~~~~~~~~~~~~~|

Verse 2
Power chords
Short riff

|--------------------------------------------|
|--------------------------------------------|
|----4-----4-----4-----4-----4-----4-----4-4-|
|--4-----4-----4-----4-----4-----4-----4-----|
|2-----2-----2-----2-----2-----2-----2-------|
|--------------------------------------------|

|-------------------------------------------|
|-------------------------------------------|
|----9-----9-----9-----9-----9-----9-----9-9|
|--9-----9-----9-----9-----9-----9-----9----|
|7-----7-----7-----7-----7-----7-----7------|
|-------------------------------------------|

|-----------------------------------------22\|
|8-9-11--11-9-7-9-7-5-9-7-5-7-5-3-7-5-3-2----|
|--------------------------------------------|
|--------------------------------------------|
|--------------------------------------------|
|--------------------------------------------|

|-----333333335555555566666666555555553333333-3-3-3-3|
|----------------------------------------------------|
|----------------------------------------------------|
|----------------------------------------------------|
|0tr5------------------------------------------------|
|----------------------------------------------------|

|12-----10-10-12-10-9-10-9-7-9-7-5-7|
|---12------------------------------|
|-----------------------------------|
|-----------------------------------|
|-----------------------------------|
|-----------------------------------|

Power chords
Pre chorus
Chorus
Post chorus

Working on the third solo. Sorry 
            
Submit corrections

comments powered by Disqus
↑ Back to top | Suicidal Tendencies Tabs for Institutionalized. Lyrics for acoustic guitar and electric guitar. 1 Tablatures and chords are parodies/interpretations of the original songs. You may use it for private study, scholarship, research or language learning purposes only