» » »

Hippie Killers Tabs (ver.2)

Artists:  A B C D E F G H I J K L M N O P Q R S T U V W X Y Z # 

Hippie Killers Tabs (ver.2)

Suicidal Tendencies
Rating:
0/5 (0 votes)

Hard to play? Try these video lessons and learn fast.
                
HIPPIE KILLER
As recorded by Suicidal Tendencies
(From the 1999 Album FREEDUMB)

        

Words and Music by Suicidal Tendencies

Gtr I (E A D G B E) - 'Untitled'
Gtr II (E A D G B E) - 'Untitled'

 Intro
  Q=202
  A5
 4/4
  Gtr I
  E E E E E E E E   E E E E E E E E
|-----------------|-----------------|
|-----------------|-----------------|
|-----------------|-----------------|
|-----------------|-----------------|
|-7-7-7-7-7-7-7-7-|-7-7-7-7-7-7-7-7-|
|-5-5-5-5-5-5-5-5-|-5-5-5-5-5-5-5-5-|


  F5                        E5      D5
   E  E  E  E  E  E  E  E   E E E E E E E E
|-------------------------|-----------------|
|-------------------------|-----------------|
|-------------------------|-----------------|
|-10-10-10-10-10-10-10-10-|-9-9-9-9-7-7-7-7-|
|--8--8--8--8--8--8--8--8-|-7-7-7-7-5-5-5-5-|
|-------------------------|-----------------|


  D5                       G5   Bb5        G5   Bb5
  E H..         W          Q  E Q  E E E   Q  E Q  E E E
|-------------|----------|---------------|----------------|
|-------------|----------|---------------|----------------|
|-------------|----------|---------------|----------------|
|-7-----------|----------|---------------|----------------|
|-5-----------|----------|-5--5-8--8-8-8-|-5--5-8--8-8-8--|
|-------------|----------|-3--3-6--6-6-6-|-3--3-6--6-6-6--|


  G5     Bb5              G5     Bb5
                                                 G
   Q   E  Q      E  E E    Q   E  Q      E   E E
|-----------------------|------------------------|
|-----------------------|------------------------|
|-----------------------|------------------------|
|-----------------------|------------------------|
|--5---5--8------8--8-8-|--5---5--8------8---8-8-|
|--3---3--6------6--6-6-|--3---3--6------6---6-6-|
|
| Gtr II
|  Q.     E  +Q     Q      Q   E  E  E  +Q     E
|-15-----15-(15)---15---|-15---------------------|
|-15-----15-(15)---15---|-15---------------------|
|-----------------------|-----17-15-17-(17)\-----|
|-----------------------|------------------------|
|-----------------------|------------------------|
|-----------------------|------------------------|


   Verse
    G5   Bb5        G5   Bb5
 tr I
    Q  E Q  E E E   Q  E Q  E E E   8x
||----------------|-----------------||
||o---------------|----------------o||
||----------------|-----------------||
||----------------|-----------------||
||o-5--5-8--8-8-8-|-5--5-8--8-8-8--o||
||--3--3-6--6-6-6-|-3--3-6--6-6-6---||
|
|   W               W               8x
||----------------|-----------------||
||o---------------|----------------o||
||----------------|-----------------||
||----------------|-----------------||
||o---------------|----------------o||
||----------------|-----------------||


  Eb5               D5  C5D5  C5D5
  E E E E E E E E   E E E E E E E E
|-----------------|-----------------|
|-----------------|-----------------|
|-----------------|-----------------|
|-8-8-8-8-8-8-8-8-|-7---5-7---5-7---|
|-6-6-6-6-6-6-6-6-|-5---3-5---3-5---|
|-----------------|-----------------|


 Guitar Solo 1
  G5     Bb5              G5         Bb5
  Gtr I
   Q   E  Q   E     E E    Q       E  Q        E  E     E
|-----------------------|---------------------------------|
|-----------------------|---------------------------------|
|-----------------------|---------------------------------|
|-----------------------|---------------------------------|
|--5---5--8---8-----8-8-|--5-------5--8--------8--8-----8-|
|--3---3--6---6-----6-6-|--3-------3--6--------6--6-----6-|
|
| Gtr II
|  Q.     Q   E     Q      E     Q    E     E  E  E     E
|-15-----15--------15---|-------15---------15-15-------15-|
|-15-----15--------15---|-------15---------15-15-------15-|
|------------17b19------|-17b19------17b19-------17b19----|
|-----------------------|---------------------------------|
|-----------------------|---------------------------------|
|-----------------------|---------------------------------|


  G5          Bb5                    G5          Bb5
   Q        E  Q        E  E  E       Q     E     Q     E E E
|----------------------------------|---------------------------|
|----------------------------------|---------------------------|
|----------------------------------|---------------------------|
|----------------------------------|---------------------------|
|--5--------5--8--------8--8--8----|--5-----5-----8-----8-8-8--|
|--3--------3--6--------6--6--6----|--3-----3-----6-----6-6-6--|
|
|  E  E     E  E  E     E  E  E       E  E  E     E  H
|-15-------15-15-------15-15-------|-15-15-------15-18\--------|
|-15-------15-15-------15-15-------|-15-15-------15------------|
|----17b19-------17b19-------17b19-|-------17b19---------------|
|----------------------------------|---------------------------|
|----------------------------------|---------------------------|
|----------------------------------|---------------------------|


   Verse
    G5   Bb5        G5   Bb5          Eb5               D5  C5D5  C5D5
    Gtr I
    Q  E Q  E E E   Q  E Q  E E E  4x E E E E E E E E   E E E E E E E E
||----------------|----------------||-----------------|-----------------|
||o---------------|---------------o||-----------------|-----------------|
||----------------|----------------||-----------------|-----------------|
||----------------|----------------||-8-8-8-8-8-8-8-8-|-7---5-7---5-7---|
||o-5--5-8--8-8-8-|-5--5-8--8-8-8-o||-6-6-6-6-6-6-6-6-|-5---3-5---3-5---|
||--3--3-6--6-6-6-|-3--3-6--6-6-6--||-----------------|-----------------|


  G5   Bb5        G5   Bb5      Eb5                   D5  C5D5  C5D5
  Q  E Q  E E E   Q  E Q  E E E     E E E E E E E E   E E E E E E E E
|---------------|---------------||------------------|-------------------||
|---------------|---------------||o-----------------|------------------o||
|---------------|---------------||------------------|-------------------||
|---------------|---------------||--8-8-8-8-8-8-8-8-|-7---5-7---5-7-----||
|-5--5-8--8-8-8-|-5--5-8--8-8-8-||o-6-6-6-6-6-6-6-6-|-5---3-5---3-5----o||
|-3--3-6--6-6-6-|-3--3-6--6-6-6-||------------------|-------------------||


 Guitar Break
  A5
  E E E E E E E E   E E E E E E E E
|-----------------|-----------------|
|-----------------|-----------------|
|-----------------|-----------------|
|-----------------|-----------------|
|-7-7-7-7-7-7-7-7-|-7-7-7-7-7-7-7-7-|
|-5-5-5-5-5-5-5-5-|-5-5-5-5-5-5-5-5-|


  F5                        E5      D5
   E  E  E  E  E  E  E  E   E E E E E E E E
|-------------------------|------------------|
|-------------------------|------------------|
|-------------------------|------------------|
|-10-10-10-10-10-10-10-10-|-9-9-9-9-7-7-7-7--|
|--8--8--8--8--8--8--8--8-|-7-7-7-7-5-5-5-5--|
|-------------------------|------------------|


   Chorus
    B5     F5 E5 D5      C5    A5 Bb5  B5     F5 E5 D5      C5    A5 Bb5
    E Q  E  E Q  E   +E   Q  E Q  Q    E Q  E  E Q  E   +E   Q  E Q  Q   4x
||-----------------|-----------------|----------------|------------------||
||o----------------|-----------------|----------------|-----------------o||
||-----------------|-----------------|----------------|------------------||
||---------10-9--7-|-(7)-------------|--------10-9--7-|-(7)--------------||
||o-9-9--9--8-7--5-|-(5)-10--x-7--8--|-9-9--9--8-7--5-|-(5)-10--x-7--8--o||
||--7-7--7---------|------8--x-5--6--|-7-7--7---------|------8--x-5--6---||


 Drum Fill                  Bridge
  B5                         B5     E5F5
  Q   H.        W            E Q  E E  Q   E
|-------------|----------||------------------|
|-------------|----------||o-----------------|
|-------------|----------||------------------|
|-------------|----------||---------9-10--10-|
|-9\----------|----------||o-9-9--9-7--8---8-|
|-7\----------|----------||--7-7--7----------|


  B5     E5F5       B5     E5F5       B5     E5F5  E5
  E Q  E E  Q   E   E Q  E E  Q   E   E Q  E E  Q  E   4x
|-----------------|-----------------|------------------||
|-----------------|-----------------|-----------------o||
|-----------------|-----------------|------------------||
|--------9-10--10-|--------9-10--10-|--------9-10--9---||
|-9-9--9-7--8---8-|-9-9--9-7--8---8-|-9-9--9-7--8--7--o||
|-7-7--7----------|-7-7--7----------|-7-7--7-----------||


 Bass and Drum Fills
  B5
  Q   H.        Wx3
|-------------|--------|
|-------------|--------|
|-------------|--------|
|-------------|--------|
|-9\----------|--------|
|-7\----------|--------|


 Guitar Solo 2
  G5     Bb5          G5        Bb5
  Gtr I
   Q   E Q  E  E  E    Q      E Q  E E E
|-------------------|--------------------|
|-------------------|--------------------|
|-------------------|--------------------|
|-------------------|--------------------|
|--5---5-8--8--8--8-|--5------5-8--8-8-8-|
|--3---3-6--6--6--6-|--3------3-6--6-6-6-|
|
| Gtr II
|  H.          E  E    E  H..
|-15----------------|--------------------|
|-15----------------|--------------------|
|-------------17-15-|----15--------------|
|-------------------|-17-----------------|
|-------------------|--------------------|
|-------------------|--------------------|


  G5          Bb5                 D5          Bb5
   Q     E     Q     E  E     E    Q        E  Q         E  E E
|-------------------------------|--------------------------------|
|-------------------------------|--------------------------------|
|-------------------------------|--------------------------------|
|-------------------------------|--------------------------------|
|--5-----5-----8-----8--8-----8-|--5--------5--8---------8--8-8--|
|--3-----3-----6-----6--6-----6-|--3--------3--6---------6--6-6--|
|
|  E  E  E     E  E  E  E     E    E     E  E  E  E     +Q.
|-15-15-------15-15-15-------15-|-------15-----------------------|
|-15-15-------15-15-15-------15-|-------15-----------------------|
|-------17b19----------17b19----|-17b19----17-15-----------------|
|-------------------------------|----------------17b19r(17)------|
|-------------------------------|--------------------------------|
|-------------------------------|--------------------------------|


   Verse
    G5   Bb5          Eb5
    Q  E Q  E E E  8x E E E E E E E E
||-----------------||-----------------|
||o---------------o||-----------------|
||-----------------||-----------------|
||-----------------||-8-8-8-8-8-8-8-8-|
||o-5--5-8--8-8-8-o||-6-6-6-6-6-6-6-6-|
||--3--3-6--6-6-6--||-----------------|


  D5  C5D5  C5D5  G5     Bb5        G5   Bb5
  E E E E E E E E   Q  E Q  E E E   Q  E Q  E E E
|-----------------|---------------|----------------|
|-----------------|---------------|----------------|
|-----------------|---------------|----------------|
|-7---5-7---5-7---|---------------|----------------|
|-5---3-5---3-5---|-5--5-8--8-8-8-|-5--5-8--8-8-8--|
|-----------------|-3--3-6--6-6-6-|-3--3-6--6-6-6--|


                                         Guitar Break
    Eb5               D5  C5D5  C5D5      A5
    E E E E E E E E   E E E E E E E E     E E E E E E E E
||------------------|------------------||-----------------|
||o-----------------|-----------------o||-----------------|
||------------------|------------------||-----------------|
||--8-8-8-8-8-8-8-8-|-7---5-7---5-7----||-----------------|
||o-6-6-6-6-6-6-6-6-|-5---3-5---3-5---o||-7-7-7-7-7-7-7-7-|
||------------------|------------------||-5-5-5-5-5-5-5-5-|


                    F5                        E5      D5
  E E E E E E E E    E  E  E  E  E  E  E  E   E E E E E E E E
|-----------------|-------------------------|-----------------|
|-----------------|-------------------------|-----------------|
|-----------------|-------------------------|-----------------|
|-----------------|-10-10-10-10-10-10-10-10-|-9-9-9-9-7-7-7-7-|
|-7-7-7-7-7-7-7-7-|--8--8--8--8--8--8--8--8-|-7-7-7-7-5-5-5-5-|
|-5-5-5-5-5-5-5-5-|-------------------------|-----------------|


   Chorus
    B5     F5 E5 D5      C5    A5 Bb5  B5     F5 E5 D5      C5    A5 Bb5
    E Q  E  E Q  E   +E   Q  E Q  Q    E Q  E  E Q  E   +E   Q  E Q  Q   4x
||-----------------|-----------------|----------------|------------------||
||o----------------|-----------------|----------------|-----------------o||
||-----------------|-----------------|----------------|------------------||
||---------10-9--7-|-(7)-------------|--------10-9--7-|-(7)--------------||
||o-9-9--9--8-7--5-|-(5)-10--x-7--8--|-9-9--9--8-7--5-|-(5)-10--x-7--8--o||
||--7-7--7---------|------8--x-5--6--|-7-7--7---------|------8--x-5--6---||


 Bass and Drum Fills
  B5
  Q   H.        Wx3
|-------------|--------|
|-------------|--------|
|-------------|--------|
|-------------|--------|
|-9\----------|--------|
|-7\----------|--------|


   Outro
    G5   Bb5          Eb5               D5  C5D5  C5D5    G5
    Q  E Q  E E E  8x E E E E E E E E   E E E E E E E E   Q   H.
||-----------------||-----------------|-----------------|-----------*|
||o---------------o||-----------------|-----------------|-----------*|
||-----------------||-----------------|-----------------|-----------*|
||-----------------||-8-8-8-8-8-8-8-8-|-7---5-7---5-7---|-5\--------*|
||o-5--5-8--8-8-8-o||-6-6-6-6-6-6-6-6-|-5---3-5---3-5---|-5\--------*|
||--3--3-6--6-6-6--||-----------------|-----------------|-3\--------*|



Duration Legend
---------------
W - whole; H - half; Q - quarter; E - 8th; S - 16th; T - 32nd; X - 64th; a - acciaccatura
+ - note tied to previous; . - note dotted; .. - note double dotted
Uncapitalized letters represent notes that are staccato (1/2 duration)
Irregular groupings are notated above the duration line
Duration letters will always appear directly above the note/fret number it represents the
duration for.  Duration letters with no fret number below them represent rests.  Multi-
bar rests are notated in the form Wxn, where n is the number of bars to rest for.  Low
melody durations appear below the staff

Tablature Legend
----------------
 h   - hammer-on
 p   - pull-off
 b   - bend
 pb  - pre-bend
 r   - bend release (if no number after the r, then release immediately)
 /\  - slide into or out of (from/to "nowhere")
 s   - legato slide
 S   - shift slide
 - natural harmonic
[n]  - artificial harmonic
n(n) - tapped harmonic
 ~   - vibrato
 tr  - trill
 T   - tap
 TP  - trem. picking
 PM  - palm muting
\n/  - tremolo bar dip; n = amount to dip
 \n  - tremolo bar down
 n/  - tremolo bar up
/n\  - tremolo bar inverted dip
 =   - hold bend; also acts as connecting device for hammers/pulls
 <> - volume swell (louder/softer)
 x   - on rhythm slash represents muted slash
 o   - on rhythm slash represents single note slash

Misc Legend
-----------
 |  - bar
||  - double bar
||o - repeat start
o|| - repeat end
*|  - double bar (ending)
 :  - bar (freetime)
 $  - Segno
 &  - Coda
Tempo markers -  = BPM(8/16=s8/s16), where s8 = swing 8ths, s16 = swing 16ths
            
Hard to play? Try these video lessons and learn fast. | Correct




comments powered by Disqus
↑ Back to top | Tablatures and chords are parodies/interpretations of the original songs. You may use it for private study, scholarship, research or language learning purposes only