» » »

Suicidal Tendencies, Hippie Killers Bass tabs (ver.2)

Artists:  A B C D E F G H I J K L M N O P Q R S T U V W X Y Z # 

Hippie Killers Bass tabs (ver.2)

Suicidal Tendencies Tabs
 Rating:
4/5 (4 votes)
Hippie Killers lessons Tabs too difficult? Try these video lessons and learn fast
                
HIPPIE KILLER (Bassline)
As recorded by Suicidal Tendencies
(From the 1999 Album FREEDUMB)

	

Words and Music by Suicidal Tendencies

Gtr I (E A D G) - 'Untitled'

 Intro
  Q=202
 4/4
  Gtr I
  E E E E E E E E   E E E E E E E E   E E E E E E E E   E E E E E E E E
|-----------------|-----------------|-----------------|-----------------|
|-----------------|-----------------|-----------------|-----------------|
|-----------------|-----------------|-8-8-8-8-8-8-8-8-|-7-7-7-7-5-5-5-5-|
|-5-5-5-5-5-5-5-5-|-5-5-5-5-5-5-5-5-|-----------------|-----------------|


                                   Verse
  E E E q  E Q    E E E q  E Q      Q  E Q  E E E   Q  E Q  E E E  10x
|---------------|---------------||----------------|-----------------||
|---------------|---------------||o---------------|----------------o||
|-5---7-8--7-5--|-3---5-6--5-3--||o---------------|----------------o||
|---------------|---------------||--3--3-6--6-6-6-|-3--3-6--6-6-6---||


  E E E E E E E E   E E E E E E E E
|-----------------|-----------------|
|-----------------|-----------------|
|-6-6-6-6-6-6-6-6-|-5---3-5---3-5---|
|-----------------|-----------------|


   Guitar Solo 1                         Verse
    Q  E Q  E E E   Q  E Q  E E E         Q  E Q  E E E   Q  E Q  E E E   4x
||----------------|----------------||-||----------------|-----------------||
||o---------------|---------------o||-||o---------------|----------------o||
||o---------------|---------------o||-||o---------------|----------------o||
||--3--3-6--6-6-6-|-3--3-6--6-6-6--||-||--3--3-6--6-6-6-|-3--3-6--6-6-6---||


  E E E E E E E E   E E E E E E E E
|-----------------|-----------------|
|-----------------|-----------------|
|-6-6-6-6-6-6-6-6-|-5---3-5---3-5---|
|-----------------|-----------------|


  Q  E Q  E E E   Q  E Q  E E E     E E E E E E E E   E E E E E E E E
|---------------|---------------||------------------|-------------------||
|---------------|---------------||o-----------------|------------------o||
|---------------|---------------||o-6-6-6-6-6-6-6-6-|-5---3-5---3-5----o||
|-3--3-6--6-6-6-|-3--3-6--6-6-6-||------------------|-------------------||


 Guitar Break
  Q  H.        W          W          H.      Q
|------------|----------|----------|--------------|
|------------|----------|----------|--------------|
|------------|----------|----------|---------5\---|
|-5----------|----------|----------|--------------|


   Chorus
    E Q  E E Q  E   +E  Q  E Q  Q    E Q  E E Q  E   +E  Q  E Q  Q   4x
||----------------|----------------|---------------|-----------------||
||o---------------|----------------|---------------|----------------o||
||o--------8-7--5-|-(5)------------|--------8-7--5-|-(5)------------o||
||--7-7--7--------|-----8--0-5--6--|-7-7--7--------|-----8--0-5--6---||


 Drum Fill                 Bridge
  Q  H.        W            E Q  E E Q  E
|------------|----------||----------------|
|------------|----------||o---------------|
|------------|----------||o--------7-8--8-|
|-7----------|----------||--7-7--7--------|


  E Q  E E Q  E   E Q  E E Q  E   E Q  E E Q  E   4x
|---------------|---------------|-----------------||
|---------------|---------------|----------------o||
|--------7-8--8-|--------7-8--8-|--------7-8--7--o||
|-7-7--7--------|-7-7--7--------|-7-7--7----------||


 Bass and Drum Fills
  W          W          E E E Q  E E E   E E E Q  E E E
|----------|----------|----------------|-----------------|
|----------|----------|----------------|-----------------|
|----------|----------|-7-5-7-8--7-5-3-|-5-3-5-6--5-3-1--|
|----------|----------|----------------|-----------------|


 Guitar Solo 2
  Q  E Q  E E E   Q  E Q  E E E   Q  E Q  E E E   Q  E Q  E E E
|---------------|---------------|---------------|----------------|
|---------------|---------------|---------------|----------------|
|---------------|---------------|---------------|----------------|
|-3--3-6--6-6-6-|-3--3-6--6-6-6-|-3--3-6--6-6-6-|-3--3-6--6-6-6--|


   Verse
    Q  E Q  E E E  8x E E E E E E E E
||-----------------||-----------------|
||o---------------o||-----------------|
||o---------------o||-6-6-6-6-6-6-6-6-|
||--3--3-6--6-6-6--||-----------------|


  E E E E E E E E   Q  E Q  E E E   Q  E Q  E E E
|-----------------|---------------|----------------|
|-----------------|---------------|----------------|
|-5---3-5---3-5---|---------------|----------------|
|-----------------|-3--3-6--6-6-6-|-3--3-6--6-6-6--|


                                         Guitar Break
    E E E E E E E E   E E E E E E E E     Wx4
||------------------|------------------||--------|
||o-----------------|-----------------o||--------|
||o-6-6-6-6-6-6-6-6-|-5---3-5---3-5---o||--------|
||------------------|------------------||--------|


   Chorus
    E Q  E E Q  E   +E  Q  E Q  Q    E Q  E E Q  E   +E  Q  E Q  Q   4x
||----------------|----------------|---------------|-----------------||
||o---------------|----------------|---------------|----------------o||
||o--------8-7--5-|-(5)------------|--------8-7--5-|-(5)------------o||
||--7-7--7--------|-----8--0-5--6--|-7-7--7--------|-----8--0-5--6---||


 Bass and Drum Fills
  W          W          E E E Q  E E E   E E E Q  E E E
|----------|----------|----------------|-----------------|
|----------|----------|----------------|-----------------|
|----------|----------|-7-5-7-8--7-5-3-|-5-3-5-6--5-3-1--|
|----------|----------|----------------|-----------------|


   Outro
    Q  E Q  E E E  8x E E E E E E E E   E E E E E E E E   Q  H.
||-----------------||-----------------|-----------------|----------*|
||o---------------o||-----------------|-----------------|----------*|
||o---------------o||-6-6-6-6-6-6-6-6-|-5---3-5---3-5---|----------*|
||--3--3-6--6-6-6--||-----------------|-----------------|-3--------*|



Duration Legend
---------------
W - whole; H - half; Q - quarter; E - 8th; S - 16th; T - 32nd; X - 64th; a - acciaccatura
+ - note tied to previous; . - note dotted; .. - note double dotted
Uncapitalized letters represent notes that are staccato (1/2 duration)
Irregular groupings are notated above the duration line
Duration letters will always appear directly above the note/fret number it represents the
duration for.  Duration letters with no fret number below them represent rests.  Multi-
bar rests are notated in the form Wxn, where n is the number of bars to rest for.  Low
melody durations appear below the staff

Tablature Legend
----------------
 h   - hammer-on
 p   - pull-off
 b   - bend
 pb  - pre-bend
 r   - bend release (if no number after the r, then release immediately)
 /\  - slide into or out of (from/to "nowhere")
 s   - legato slide
 S   - shift slide
 - natural harmonic
[n]  - artificial harmonic
n(n) - tapped harmonic
 ~   - vibrato
 tr  - trill
 T   - tap
 TP  - trem. picking
 PM  - palm muting
\n/  - tremolo bar dip; n = amount to dip
 \n  - tremolo bar down
 n/  - tremolo bar up
/n\  - tremolo bar inverted dip
 =   - hold bend; also acts as connecting device for hammers/pulls
 <> - volume swell (louder/softer)
 x   - on rhythm slash represents muted slash
 o   - on rhythm slash represents single note slash

Misc Legend
-----------
 |  - bar
||  - double bar
||o - repeat start
o|| - repeat end
*|  - double bar (ending)
 :  - bar (freetime)
 $  - Segno
 &  - Coda
Tempo markers -  = BPM(8/16=s8/s16), where s8 = swing 8ths, s16 = swing 16ths
            
Submit corrections

comments powered by Disqus
↑ Back to top | Suicidal Tendencies Bass for Hippie Killers. Lyrics for acoustic guitar and electric guitar. Tablatures and chords are parodies/interpretations of the original songs. You may use it for private study, scholarship, research or language learning purposes only