>
 >
Fascist Pig

Fascist Pig Guitar Tabs

Suicidal Tendencies - Fascist Pig chords, tabs, tablatures, lyrics

Guitar lessons | Add/correct | Request | Top 50 tabs Artists:  A B C D E F G H I J K L M N O P Q R S T U V W X Y Z 0-9

Fascist Pig Guitar Tabs – Suicidal Tendencies

CD, Sheet music, Poster

Do you like Fascist Pig? Share with your friends now
Bass TabsTabsTabs v2
                                  FASCIST PIG
                                 +===========+

  h - hammer on
  p - pull off
  b - bend (amount of bend above the measure)
  r - release bend
  x - muffled string
  ~ - vibrato
  / - slide up
  \ - slide down
  ^ - palm mute              
   
||-----------------------------------------------------| 
||-----------------------------------------------------| very fast  
||-----------------------------------------------------| X3
||-9--9--9--9--11-11-11-11-12--12--12--12--11-11-11-11-| 
||-7--7--7--7--9--9--9--9--10--10--10--10--9--9--9--9--|
||-----------------------------------------------------|

|-----------------------------------------------|| 
|-----------------------------------------------|| very fast  
|-----------------------------------------------|| X1
|-9--9--9--9--11-11-11-11-12--------------------|| 
|-7--7--7--7--9--9--9--9--10--------------------||
|-----------------------------------------------||


|------------------|  
|------------------|   
|------------------| X4
|-9-9-----7-7------| 
|-7-7-9-9-5-5-7-7--|
|-----7-7-----5-5--|


||----------------------------------|      
||----------------------------------|   
||*---------------------------------| 
||*---------------------------------| X2
||--7-7-7-7-7-7-7-7-9-9-9-9-9-9-9-9-|
||--5-5-5-5-5-5-5-5-7-7-7-7-7-7-7-7-|
                                                     
|----------------------------------||  
|----------------------------------||   
|---------------------------------*|| X1
|---------------------------------*|| 
|-7-7-7-7-7-7-7-7-9-r-9-r-9-9-9-9--||
|-5-5-5-5-5-5-5-5-7-r-7-r-7-7-7-7--|| r = rest

|---------------------------------|  
|---------------------------------|   
|---------------------------------| song ends here 
|---------------------------------| 
|-7-7-7-7-7-7-7-7-9-r-9-r-9-r-----|
|-5-5-5-5-5-5-5-5-7-r-7-r-7-r-----| r = rest

Written by Mike Muir.





Comments


Popular Suicidal Tendencies tabs & chords
Asleep At The Wheel Bass Tabs
Go Skate 1 Bass Tabs
Send Me Your Money 1 Bass Tabs
Accept My Sacrifice Tabs
Cyco Vision Tabs
Disco's Out, Murder's In Tabs
Fascist Pig 1 Tabs
Get Sick Tabs
Pop Songs 1 Tabs
The Miracle Tabs


Song lyrics



↑ Back to top | Tablatures and chords are parodies/interpretations of the original songs. You may use it for private study, scholarship, research or language learning purposes only
© 2014 AZChords.com Contact us | Privacy policy | DMCA | Add/correct tabs | Request tabs | Top 50 tabs