» » »

Fascist Pig Bass tabs (ver.1)

Artists:  A B C D E F G H I J K L M N O P Q R S T U V W X Y Z # 

Fascist Pig Bass tabs (ver.1)

Suicidal Tendencies
Rating:
0/5 (0 votes)

Tabs too difficult? Try these video lessons and learn fast.
                All the notes are 8th notes, the 2-digit notes are played like "|-10101010-|   "          
   
||---------------------------------------------| 
||---------------------------------------------| 
||---------------------------------------------| x3
||-8888-10-10-10-10-11-11-11-11-10-10-10-10----|
 
|-----------------------------------------------|| 
|-----------------------------------------------|| 
|-8888-10-10-10-10-11---------------------------||x1
|-----------------------------------------------||
   
|------------| 
|------------| 
|-88--66-----|x4
|---88--66---|
     
||--------------------|   
||--------------------| x2
||--------------------| 
||--66666666-88888888-|

|------------------------||                                            
|------------------------|| x1
|------------------------|| 
|-66666666-8-r-8-r-8888--||

|-------------------------|    
|-------------------------| x1
|-------------------------| 
|-66666666-8-r-8-r-8------|
            
Tabs too difficult? Try these video lessons and learn fast.


comments powered by Disqus
↑ Back to top | Tablatures and chords are parodies/interpretations of the original songs. You may use it for private study, scholarship, research or language learning purposes only