» » »

Suicidal Tendencies, Asleep At The Wheel Bass tabs (ver.1)

Artists:  A B C D E F G H I J K L M N O P Q R S T U V W X Y Z # 

Asleep At The Wheel Bass tabs (ver.1)

Suicidal Tendencies Tabs
 Rating:
4.2/5 (5 votes)
Asleep At The Wheel lessons Tabs too difficult? Try these video lessons and learn fast
                Suicidal Tendencies
    "Asleep At The Wheel"

/  - slide up to	\  - slide down to

    Bass Intro:
    G |-------6------|-------6-------|-------6-------|-------6-------|
    D |---8-5---7----|---8-5---7-5-7-|---8-5---7-6\--|---8-5---7-5-7-|
    A |-0--0---------|-0--0----------|-0--0------4\--|-0--0----------|
    E |--------------|---------------|---------------|---------------|

    G |---7\5--------|---7\5---------|---7\5---------|---------------|
    D |---------5/7--|----------5/7--|----------5/7--|-5---5-5-5/7---|
    A |-5--3---------|-5--3----------|-5--3----------|----0-0-0------|
    E |--------3-----|---------------|---------3-----|---------------|
    
    G |19\17/19--14\12/14|-----------|-------------|-9-7---------------|
    D |------------------|-----------|-----------5-|----7-5--7-5-------|
    A |------------------|-0---------|-----3-5/7---|-------------7-5-7-|
    E |------------------|-----------|-3-5---------|-------------------|

    Guitar Intro On Bass:
    G |-9--9--9--9-9-9-|-12--12--14--15-14-12-|
    D |-7--7--7--7-7-7-|-10--10--12--13-12-10-|
    A |----------------|----------------------|
    E |----------------|----------------------|

    Or Guitar Intro On Bass:
    G |-14--14--14--14-14-14-|-17--17--14--20-19-17-|
    D |-14--14--14--14-14-14-|-17--17--12--20-19-17-|
    A |-12--12--12--12-12-12-|-15--15--17--18-17-15-|
    E |----------------------|----------------------|

    Generic Bass Line (the chord progression)
    G |---2-0---20-|-------------|---2-0---20-|-------------|
    D |-------2---2|-----0-1-0---|-------2---2|-----0-1-0---|
    A |-0----------|-3-3-------3-|-0----------|-3-3-------3-|
    E |------------|-------------|------------|-------------|

    Generic Bass Line (the chord progression)
    G |-2-------20-|-------------|------------|------------|
    D |-----------2|-----0-1-0---|------------|-----0-1-0--|
    A |------------|-3-3-------3-|-0-------30-|-3-3------3-|
    E |------------|-------------|------------|-----------3|

    Generic Bass Line (the chord progression)
    G |-2----------|-------------|-2-------20-|-------------|
    D |------------|-----0-1-0---|-----------2|-----0-1-0---|
    A |------------|-3-3-------3-|------------|-3-3-------3-|
    E |------------|-------------|------------|-------------|

    Refrain
    G |----------------|----------------|----------------|----------------|
    D |----------------|----------------|----------------|----------------|
    A |----------------|-0--0--1--1-1-1-|----------------|-0--0--1--1-1-1-|
    E |-3--3--3--3-3-3-|----------------|-3--3--3--3-3-3-|----------------|

    G |--------------------|12/14\12-----------------------|
    D |-9/10---12/13\12\10-|---------12/13\12--12/13\12\10-|
    A |--------------------|-------------------------------|
    E |--------------------|-------------------------------|

    Solo
    G |------------------------|----------------|
    D |------------------------|----------------|
    A |-5-3--3-----------------|-0--0--1--1-1-1-|
    E |-----5--5-3-5-3-0-3-0-3-|----------------|

    G |-------3/5-3---3--------------------|----------------|
    D |-------------5---5-3-5-3---3---3-5\-|----------------|
    A |-----3-------------------5---5------|-0--0--1--1-1-1-|
    E |-3-5--------------------------------|----------------|

    G |-------12----10----------------------|----------------|
    D |-10-12----12----12-10-12-10-8-10-8---|----------------|
    A |-----------------------------------8-|-0--0--1--1-1-1-|
    E |-------------------------------------|----------------|

    G |-------------3-----------|----------------|
    D |-------5-3-----5-3-5-3---|----------------|
    A |---3-5-----5-----------5-|-0--0--1--1-1-1-|
    E |-3-----------------------|----------------|
            
Submit corrections

comments powered by Disqus
↑ Back to top | Suicidal Tendencies Bass for Asleep At The Wheel. Lyrics for acoustic guitar and electric guitar. Tablatures and chords are parodies/interpretations of the original songs. You may use it for private study, scholarship, research or language learning purposes only