» » »

Suicidal Tendencies, Asleep At The Wheel Tabs (ver.1)

Artists:  A B C D E F G H I J K L M N O P Q R S T U V W X Y Z # 

Asleep At The Wheel Tabs (ver.1)

Suicidal Tendencies Tabs
 Rating:
4/5 (4 votes)
Asleep At The Wheel lessons Tabs too difficult? Try these video lessons and learn fast
1
                Band:  Suicidal Tendencies

Copyright (c)  (Sony) (1992)
Version 1.0 - (05/06/05)



.  - palm mute           /  - slide up to
\  - slide down to       ~  - vibrato
h  - hammer on           b  - Bend
p  - pull off            Suffixes for bend
t  - tap                 f  - full bend    h - half bend
ph - pinched harmonic    q  - quarter bend t - tap bend
*  - see comment         ^  - Hold bend    r release bend
x  - Stuccatto           ~  - vibrato bend
,  - slight palm mute    () - ghost note, sustained note
"  - tremolo note        <> - Trill

Tunning E A D G B E
 
 Intro

 Acoustic guitar

E----------------------------------------|
B-2---2--2-2-2-2--2-2-/5--5---7-7-----5--|
G-2---2--2-2-2-2--2-2-/5--5---7-7-8-7\5--|
D-2---2--2-2-2-2--2-2-/5--5---7-7-8-7\5--|
A-0---0--0-0-0-0--0-0--0--0-0-0-0-0-0----|
E----------------------------------------|

 Main Riff

 Distorted guitar/ with above acoustic riff enters 2nd time.

E----------------------------------------|
B----------------------------------------|
G-2---2--2-2-2-2-2-2-2/5--5---7-7-8-7\5--|
D-2---2--2-2-2-2-2-2-2/5--5---7-7-8-7\5--|
A-0---0--0-0-0-0-0-0-0------0------------|
E----------------------------------------| Rpt 7 X

 Verse

 Cleanish guitar

E-------------------------------------------------------------------|
B-------5--------------------------(5)------------------------------|
G-----5----------------------------(5)------------------------------|
D---5------------------------------(5)------------------------------|
A-0--------------------------------(0)------------------------------|
E-------------------------------------------------------------------|
                                                               Rpt
 Bridge

E-3---3---3-3-3-3--------------------|
B-3---3---3-3-3-3-2--2---------------|
G-0---0---0-0-0-0-2--2----3--3-3-3-3-|
D-0---0---0-0-0-0-2--2----3--3-3-3-3-|
A-----------------0--0-0--1--1-1-1-1-|
E-3---3---3-3-3-3--------------------| Rpt 3 X


E-3---3---3-3-3-3--------------------|
B-3---3---3-3-3-3-2------------------|
G-0---0---0-0-0-0-2------------------|
D-0---0---0-0-0-0-2------------------|
A-----------------0------------------|
E-3---3---3-3-3-3--------------------|

 Rpt Main Riff 2 X
 Rpt Verse
 Rpt Bridge

 Backing for guitar solo  

 Rpt Main Riff 4 X

E-3---------------5----6--------------|
B-3---------------5--5-6--------------|
G-0---------------6--6-7--------------|
D-0---------------7--7-8--------------|
A-----------------7--7-8--------------|
E-3---------------5----6--------------| Rpt 4 X

 Rpt Main Riff 12 X

 Ending

E-------------------------------------------------------------------|
B-2----------------------------(2)----------------------------------|
G-2----------------------------(2)----------------------------------|
D-2----------------------------(2)----------------------------------|
A-0----------------------------(0)----------------------------------|
E-------------------------------------------------------------------|


END
            
Submit corrections

comments powered by Disqus
↑ Back to top | Suicidal Tendencies Tabs for Asleep At The Wheel. Lyrics for acoustic guitar and electric guitar. 1 Tablatures and chords are parodies/interpretations of the original songs. You may use it for private study, scholarship, research or language learning purposes only