» » »

Subway To Sally, Ohne Liebe Tabs (ver.3)

Artists:  A B C D E F G H I J K L M N O P Q R S T U V W X Y Z # 

Ohne Liebe Tabs (ver.3)

Subway To Sally Tabs
 Rating:
4/5 (4 votes)
Ohne Liebe lessons Tabs too difficult? Try these video lessons and learn fast
                Intro 

e--7-5--------------------------7-9------9-10-12-10-9-10-9h10p9--|
B------5-7--------------------------10-8-------------------------|
G-----------4-6-7-9-6--------------------------------------------|
D---------------------7-9--x2------------------------------------|
A----------------------------------------------------------------|
E----------------------------------------------------------------|



Verse

e----------------|-------------|
B----------------|-------------|
G----------------|-------------|
D-444444-----3x--|--4442244----|
A-222222-5^v-----|--2220022----|
E----------------|-------------|
  ...               ...   


e-------------|
B-------------|
G-------------|
D-444---------|
A-222---------|
E-------------|
  ...

next Verse

e-------------|
B-------------|
G-------------|
D-444444------|
A-222222-5^v--|
E-------------|
  ...



Chorus

e----------|
B----------|
G----------|
D--5----4--|
A--5----4--|
E--3----2--|



e--------------------------------|
B--------------------------------|
G--------------------------------|
D--9-9--7-7-9--9-9--5-5--7-7--9--|
A--9-9--7-7-9--9-9--5-5--7-7--9--|
E--7-7--5-5-7--7-7--3-3--5-5--7--|



Not played by guitar but if you want to play.

e------7-5-7----------5-5-4------------------------------|
B--5-7-------7--7-5-7------7--7-5---5-7------------------|
G---------------------------------7-----6-6-4-6-7-7-6-4--|
D--------------------------------------------------------|
A--------------------------------------------------------|
E--------------------------------------------------------|




^ = Pinch Harmonic
v = Bending
. = Palm Mute
h = Hammer On
p = Pull Off
            
Submit corrections

comments powered by Disqus
↑ Back to top | Subway To Sally Tabs for Ohne Liebe. Lyrics for acoustic guitar and electric guitar. Tablatures and chords are parodies/interpretations of the original songs. You may use it for private study, scholarship, research or language learning purposes only