array
(
    
'ohneliebe' => 'ohneliebe'
    'subwaytosally' 
=> 'subwaytosally'
)
Ohne Liebe Tabs (ver. 2) by Subway To Sally @ AZ CHORDS.COM
» » »

Ohne Liebe Tabs (ver.2)

Artists:  A B C D E F G H I J K L M N O P Q R S T U V W X Y Z # 

Ohne Liebe Tabs (ver.2)

Subway To Sally
Rating:
0/5 (0 votes)

Hard to play? Try these video lessons and learn fast.
                Subway to Sally – Ohne Liebe
E-Guitar TAB

Figured it out by ear so dont´t be angry with me if its not 100%ly correct!


p-pull-off
h-hammer-on
s-slide
^pinchharmonics
v-vibrato (with finger)

Intro:
/w Clean Guitar

e--7-5---------------------7-9------9-10-12-10-9-10-9h10p9v--|
b------5-7---------------------10-8--------------------------|
g-----------4-6-7-9-6----------------------------------------|
d---------------------7-9------------------------------------|
a------------------------------------------------------------|
e------------------------------------------------------------|

Pre-Verse and piece of Verse (listen to the recording to figure out the Rhythm)
/w Distortion

e----------------------------------------------|
b----------------------------------------------|
g----------------------------------------------|
d--------^10v---------^10v---------------------|
a--9-9-9------9-9-9-9------9-9-9-9-9-9-7-------| let ring last chord
e--7-7-7------7-7-7-7------7-7-7-7-7-7-5-------|

Verse:
/w Distortion
e--------------|
b--------------|
g--------------|
d--------------|
a--9—9—9-------|
e--7—7—7-------|

e-------------|
b-------------|
g-------------|
d--5----4-----|
a--5----4-----|let ring both chords
e--3----2-----|

Chorus:
/w Distortion

e------------------------------------|
b------------------------------------|
g------------------------------------|
d--9-9--7-7-9--9-9--5-5--7-7--9------|
a--9-9--7-7-9--9-9--5-5--7-7--9------|
e--7-7--5-5-7--7-7--3-3--5-5--7------|


that´s it i think!!!
(i will make a guitar pro version a few days!!!)
Have fun with it
            
Hard to play? Try these video lessons and learn fast. | Correct




comments powered by Disqus
↑ Back to top | Tablatures and chords are parodies/interpretations of the original songs. You may use it for private study, scholarship, research or language learning purposes only