» » »

Subway To Sally, Fatum Tabs (ver.2)

Artists:  A B C D E F G H I J K L M N O P Q R S T U V W X Y Z # 

Fatum Tabs (ver.2)

Subway To Sally Tabs
 Rating:
4/5 (4 votes)
Fatum lessons Tabs too difficult? Try these video lessons and learn fast
1
                Intro (thanks to the unregistred guy who wrote that):

   E  E  E  E  E  E  +E   E    E  E  E  E  Q   +E   E
|---------------------------|-------------------------|
|-11-10-11-13-11-10-(10)----|-10----10-11-10--(10)----|
|------------------------12-|----12----------------12-|
|---------------------------|-------------------------|
|---------------------------|-------------------------|
|---------------------------|-------------------------|


   E  E  E  E  E  Q   E    E  E  E  E  E  +E   +E   E
|-----------------------|-10---------------------------|
|-11-10-11-13-11-10-----|----13-11-13-10-(10)-(10)-----|
|--------------------12-|--------------------------12--|
|-----------------------|------------------------------|
|-----------------------|------------------------------|
|-----------------------|------------------------------|


   E  E  E  E  E  E  +E   E    E  E  E  E  Q   +E   E
|---------------------------|-------------------------|
|-11-10-11-13-11-10-(10)----|-10----10-11-10--(10)----|
|------------------------12-|----12----------------12-|
|---------------------------|-------------------------|
|---------------------------|-------------------------|
|---------------------------|-------------------------|


   E  E  E  E  E  Q   +E     Q   Q   Q   Q
|-10----------------------|-----------------|
|----13-11-13-11-10--(10)-|-11--10----------|
|-------------------------|---------12--11--|
|-------------------------|-----------------|
|-------------------------|-----------------|
|-------------------------|-----------------|


                >
   W           +Q
|-----------|---------|
|-----------|---------|
|-12--------|-(12)----|
|-----------|---------|
|-----------|---------|
|-----------|---------|

Verse 1:

Gm
Ich kenne meinen Stammbaum
F                    Gm              
Er reicht ins erste Glied

Dort gab es meine Mutter
F                    Gm
Die von dem Vater schwieg
    Cm
Sie kam nach Haus mit Fremden
     Dm
Dann war ich fremd Daheim
    Cm
Ich fühlte mich verraten
   Dm           Gm
So unwert und allein

(repeat Intro)

Verse 2:

Gm
Als Bastardsohn geboren
F                     Gm
Brauch' ich kein Horoskop

Es steht nicht in den Sternen
F                    Gm
Wer mich ins Unglück zog
   Cm
Wo euch Gestirne leuchten
     Dm
Sind meine längst verglüht
    Cm
ich fühl' mein nacktes Leben
    Dm           Gm
Als sei es schon verblüht

(repeat Intro)

Bridge:

G#                   D
Meine Heimat ging verlor´n
     Gm        F
Ihre Seen ihre Auen
          G#           D
Wird mein Auge niemals schauen
Gm         F          Gm
So steht es in meinem Blut

Outro:

      E   E   E   E   E   E   E   E      E   E   E   E   Q     E   E   
E||----------------------------------|--------------------------------|
B||--11--10--11--13--11--10---L------|--10------10--11--10-----L------|
G||------------------------------12--|------12--------------------12--|
D||----------------------------------|--------------------------------|
A||----------------------------------|--------------------------------|
E||----------------------------------|--------------------------------|


   E   E   E   E   E   Q     E      E   E   E   E   E   E   E   E   
--------------------------------|--10------------------------------|
--11--10--11--13--11--10--------|------13--11--13--10---L---L------|
----------------------------12--|------------------------------12--|
--------------------------------|----------------------------------|
--------------------------------|----------------------------------|
--------------------------------|----------------------------------|


   E   E   E   E   S  S  S  S  E   E      E   E   E   E   S  S  S  S  E   E   
------------------10-11-10----10------|------------------10-11-10----10------|
--11--10--11--13-----------13---------|--10------10---------------13---------|
----------------------------------12--|------12------12------------------12--|
--------------------------------------|--------------------------------------|
--------------------------------------|--------------------------------------|
--------------------------------------|--------------------------------------|


   E   E   E   E   S  S  S  S  E   E      E   E   E   E   S  S  S  S  E   E   
------------------10-11-10----10------|--10--------------10-11-10----10------|
--11--10--11--13-----------13---------|------13--11--13-----------13---------|
----------------------------------12--|----------------------------------12--|
--------------------------------------|--------------------------------------|
--------------------------------------|--------------------------------------|
--------------------------------------|--------------------------------------|


   E   E   E   E   S  S  S  S  E   E      E   E   E   E   S  S  S  S  E   E   
------------------10-11-10----10------|------------------10-11-10----10------|
--11--10--11--13-----------13---------|--10------10---------------13---------|
----------------------------------12--|------12------12------------------12--|
--------------------------------------|--------------------------------------|
--------------------------------------|--------------------------------------|
--------------------------------------|--------------------------------------|


   E   E   E   E   S  S  S  S  E   E      Q     Q     Q     Q     
--10--------------10-11-10----10------|--------------------------|
------13--11--13-----------13---------|--11----10----------------|
----------------------------------12--|--------------12----11----|
--------------------------------------|--------------------------|
--------------------------------------|--------------------------|
--------------------------------------|--------------------------|


   W                  
--------------------||
--------------------||
--12----------------||
--------------------||
--------------------||
--------------------||
            
Submit corrections

comments powered by Disqus
↑ Back to top | Subway To Sally Tabs for Fatum. Lyrics for acoustic guitar and electric guitar. 1 Tablatures and chords are parodies/interpretations of the original songs. You may use it for private study, scholarship, research or language learning purposes only