» » »

Fatum Tabs (ver.1)

Artists:  A B C D E F G H I J K L M N O P Q R S T U V W X Y Z # 

Fatum Tabs (ver.1)

Subway To Sally
Rating:
3/5 (1 vote)

Hard to play? Try these video lessons and learn fast.
                (Intro)
Intro
  Q=100
 4/4
  Gtrs I, II
   E  E  E  E  E  E  +E   E    E  E  E  E  Q   +E   E
|---------------------------|-------------------------|
|-11-10-11-13-11-10-(10)----|-10----10-11-10--(10)----|
|------------------------12-|----12----------------12-|
|---------------------------|-------------------------|
|---------------------------|-------------------------|
|---------------------------|-------------------------|


   E  E  E  E  E  Q   E    E  E  E  E  E  +E   +E   E
|-----------------------|-10---------------------------|
|-11-10-11-13-11-10-----|----13-11-13-10-(10)-(10)-----|
|--------------------12-|--------------------------12--|
|-----------------------|------------------------------|
|-----------------------|------------------------------|
|-----------------------|------------------------------|


   E  E  E  E  E  E  +E   E    E  E  E  E  Q   +E   E
|---------------------------|-------------------------|
|-11-10-11-13-11-10-(10)----|-10----10-11-10--(10)----|
|------------------------12-|----12----------------12-|
|---------------------------|-------------------------|
|---------------------------|-------------------------|
|---------------------------|-------------------------|


   E  E  E  E  E  Q   +E     Q   Q   Q   Q
|-10----------------------|-----------------|
|----13-11-13-11-10--(10)-|-11--10----------|
|-------------------------|---------12--11--|
|-------------------------|-----------------|
|-------------------------|-----------------|
|-------------------------|-----------------|


                >
   W           +Q
|-----------|---------|
|-----------|---------|
|-12--------|-(12)----|
|-----------|---------|
|-----------|---------|
|-----------|---------|
            
Hard to play? Try these video lessons and learn fast. | Correct




comments powered by Disqus
↑ Back to top | Tablatures and chords are parodies/interpretations of the original songs. You may use it for private study, scholarship, research or language learning purposes only