» » »

Under My Voodoo Bass tabs (ver.1)

Artists:  A B C D E F G H I J K L M N O P Q R S T U V W X Y Z # 

Under My Voodoo Bass tabs (ver.1)

Sublime
Rating:
0/5 (0 votes)

Hard to play? Try these video lessons and learn fast.
                Under My Voodoo Bass Tab By Sublime

Main Riff:

G|-------------|
D|-------5-----|
A|-----5---7-7-|
E|-5h7---------|

Ending Verse 1:

G|----------------------|
D|-555555555-4444-33333-|
A|----------------------|
E|----------------------|

Ending Verse 2:

G|--------------------------|
D|-555555555-7777-99999-----|
A|----------------------10~-|
E|--------------------------|
After solo let the A-7 note ring.

Verse Variation During Solo:

G|------------------|
D|------------------|
A|-3---3---33-5-6-5-|
E|---3---3----------|

Those are the riffs of the song, just listen to it to take the timing.


By Leandro Haroutune.

Doubts, corrections or suggestions please mail me:
            
Hard to play? Try these video lessons and learn fast. | Correct




comments powered by Disqus
↑ Back to top | Tablatures and chords are parodies/interpretations of the original songs. You may use it for private study, scholarship, research or language learning purposes only