» » »

Sublime, Under My Voodoo Tabs (ver.3)

Artists:  A B C D E F G H I J K L M N O P Q R S T U V W X Y Z # 

Under My Voodoo Tabs (ver.3)

Sublime Tabs
 Rating:
4/5 (4 votes)
Under My Voodoo lessons Tabs too difficult? Try these video lessons and learn fast
1
                Standard Tuning (EADGBe)

Intro
e--------------------------------------------------------------------------I
B-------7b-----------------------------------------------------------------I
G--6-9-----9-6-------------------------------------------------------------I
D---------------9-7—9b--7-----------------9-7------------------------------I
A-------------------------9-9-7-9-9-7-9-9----------------------------------I
E--------------------------------------------------------------------------I



e--------------------------------------------------------------7-----------I
B----10-8----------------------------------8----------8--10-10---8--8-10---I
G---------9-9-7-9-7-9-7-9-9b-7---7-9-7-9-7---7-9-7-9-----------------------I
D------------------------------9-------------------------------------------I
A--------------------------------------------------------------------------I
E--------------------------------------------------------------------------I


e--------------7-7-7-7\----------------------------------------------------I
B---10b--8-10b-----------------------------------9-------------------------I
G--------------------------7-9---------------7-9-------9-9-9-7-9-7-9b-7----I
D------------------------9----------7----9-9----------------------------9--I
A-------------------------------7-9---7------------------------------------I
E--------------------------------------------------------------------------I


e--------------------------------------------------------------------------I
B-------8-------8-----8-----8-8-----8-8-----8-8-8-8-8-8-8-8----------------I
G---7-9---7-9-9---7-9---7-9-----7-9-----7-9--------------------------------I
D--------------------------------------------------------------------------I
A--------------------------------------------------------------------------I
E--------------------------------------------------------------------------I

During this part he plays the following power chords
e--------------------------------------------------------------------------I
B--------------------------------------------------------------------------I
G--------------------------------------------------------------------------I
D---5--4--2--5-7-9---------------------------------------------------------I
A---5--4--2--5-7-9---------------------------------------------------------I
E---3--2--0--3-5-7---------------------------------------------------------I


e--------------------------------------------------------------------------I
B-------------------------------8-------------------------8-----10--8------I
G---9~~~-9-7---7--9-------9-7-----7-9----9-9-7-------9--9---9--------------I
D------------9------7---------9----------------9-7-9-----------------------I
A---------------------9-7--------------------------------------------------I
E--------------------------------------------------------------------------I


e--------------------------------------------------------------------------I
B---------------8----------8—10b-8------------------------------------8----I
G---9--9--7-9-7----7-----7---------9-9-7-9------9-9------9-9--------9------I
D--------------------7-9-------------------2-22-----2-22------9-7-9--------I
A------------------------------------------2-22-----2-22-------------------I
E------------------------------------------0-00-----0-00-------------------I


e--------------------------------------------------------------------------I
B----------------------8--------8---------8--------------------------------I
G----9-7---7--9-7---7-----9-7-9-----9-7-9-----9-7-9---(does this part more)I
D--------9--------9--------------------------------------------------------I
A--------------------------------------------------------------------------I
E--------------------------------------------------------------------------I


During this part he plays the following power chords
e--------------------------------------------------------------------------I
B--------------------------------------------------------------------------I
G-----------------------9--------------------------------------------------I
D---5--4--2--5-7-9---------------------------------------------------------I
A---5--4--2--5-7-9---------------------------------------------------------I
E---3--2--0--3-5-7---------------------------------------------------------I

Solo
e------17b—17b-17b------------------------------------------15-------------I
B-------------------17p15h17p15h17-15p17-----------------------------------I
G-----------------------------------------14h16-------14h16----------------I
D-----------------------------------------------14h16-----------16-14------I
A--------------------------------------------------------------------------I
E--------------------------------------------------------------------------I



e--------------------------------------------------------------------------I
B--------------------------------------------------------------------------I
G--------------------------------------------------------------------------I
D----14-14-17-17-14-14-17-1717-17-14-17-14-17-14-17-17-17------------------I
A--------------------------------------------------------------------------I
E--------------------------------------------------------------------------I



e-----------------------------------------------16----16-------------------I
B--------------------------------------------------16----15----------------I
G----17b-14-----------1717-1414--------------------------------------------I
D------------17-15--------------1717-1515----------------------------------I
A------------------17---------------------17-------------------------------I
E--------------------------------------------------------------------------I



e----16-----------------------------I
B-------17--------16-16-------------I
G----------x5-----------------------I
D-----------------------------------I
A-----------------------------------I
E-----------------------------------I



During this part he plays the following power chords
e--------------------------------------------------------------------------I
B--------------------------------------------------------------------------I
G--------------------------------------------------------------------------I
D---5--4--2--5-7-9--2------------------------------------------------------I
A---5--4--2--5-7-9--2------------------------------------------------------I
E---3--2--0--3-5-7--0------------------------------------------------------I
            
Submit corrections

comments powered by Disqus
↑ Back to top | Sublime Tabs for Under My Voodoo. Lyrics for acoustic guitar and electric guitar. 1 Tablatures and chords are parodies/interpretations of the original songs. You may use it for private study, scholarship, research or language learning purposes only