» » »

Under My Voodoo Tabs (ver.2)

Artists:  A B C D E F G H I J K L M N O P Q R S T U V W X Y Z # 

Under My Voodoo Tabs (ver.2)

Sublime
Rating:
0/5 (0 votes)

Tabs too difficult? Try these video lessons and learn fast.
                Sublime
Under My Voodoo
Sublime
Intro only
Standard E Tuning
~~ = Bend up

|---------------------------------------|
|---------------------------------------|
|----9-11~~-9---------------------------|
|-11-----------11----9-7-9~~-7----------|
|-------------------------------9-------|
|---------------------------------------|

|---------------------------------------|
|---------------------------------------|
|---------------------------------------|
|-------------------------9-7-----------|
|-9-7-9---9-7-9---9-7-9-----------------|
|---------------------------------------|
            
Tabs too difficult? Try these video lessons and learn fast.




comments powered by Disqus
↑ Back to top | Tablatures and chords are parodies/interpretations of the original songs. You may use it for private study, scholarship, research or language learning purposes only