» » »

Sublime, New Thrash Tabs (ver.2)

Artists:  A B C D E F G H I J K L M N O P Q R S T U V W X Y Z # 

New Thrash Tabs (ver.2)

Sublime Tabs
 Rating:
4/5 (4 votes)
New Thrash lessons Tabs too difficult? Try these video lessons and learn fast
                
Intro:
    G  /////volume swell////////////////////
e---------------------------------------------------
B---------------------------------------------------
G---4-----------------------------------------------
D---5-----------------------------------------------
A---5-----------------------------------------------
E---3-----------------------------------------------

Verse:

    G     D    F     G       A    F
e---------------------------------------------------
B---------------------------------------------------
G---4-----7----10----12------6----10----12----------
D---5-----7----10----12------7----10----12----------
A---5-----5----8-----10------7----8-----10----------
E---3-----x*---x*----x*------5----x*----x*----------
   (x9) (x8)  (x10) (x8)   (x18) (x9)  (x8)

*= when I play this song I hold my thumb over the 
E string to mute it for these chords

Solo:
 N.C.
e---------------------------------------------------
B--8—8/5--10-10-10-10/15-15-15/13/12/13/12/10/8-----
G--7-x/x--x--x--x—-x/-x--x—-x/-x/-x/-x-/x-/x-/x-----
D--5-5/7--7--7--7—-7/-12-12-12/10/9/-10/9-/7-/5-----
A---------------------------------------------------
E---------------------------------------------------

e---------------------------------------------------
B—8/15—15/13—13-13—-12—-12—-12/10—-10—-10—-10/8—-8--
G-x/x---x/-x—x---x---x---x---x/-x---x---x---x/x—-x--
D-5/12—12/10-10-10---9---9---9/-7---7---7---7/5—-5--
A---------------------------------------------------
E---------------------------------------------------
                              (harmonics)
e---------------------------------------------------
B—8/10/8---8---8—8^-----------(12)—(10)-------------
G—x/-x/x---x---x—x------------(12)-(10)-------------
D—5/-7/5---5---5—5------------(12)-(10)-------------
A---------------------------------------------------
E---------------------------------------------------

Verse 2

    G    D    F    G
e---------------------------------------------------
B---------------------------------------------------
G---4----7----10---12//////-------------------------
D---5----7----10---12//////-------Drum Solo---------
A---5----5----8----10//////-------------------------
E---3----x----x----x--------------------------------
   (x8) (x9) (x8) (x1)

Verse 3 is the same thing as verse 2, just shorter
Enjoy!!!!
            
Submit corrections

comments powered by Disqus
↑ Back to top | Sublime Tabs for New Thrash. Lyrics for acoustic guitar and electric guitar. Tablatures and chords are parodies/interpretations of the original songs. You may use it for private study, scholarship, research or language learning purposes only