>
 >
New Thrash 1

New Thrash 1 Guitar Tabs

Sublime - New Thrash 1 chords, tabs, tablatures, lyrics

Guitar lessons | Add/correct | Request | Top 50 tabs Artists:  A B C D E F G H I J K L M N O P Q R S T U V W X Y Z 0-9

New Thrash 1 Guitar Tabs – Sublime

CD, Sheet music, Poster

Do you like New Thrash 1? Share with your friends now
Bass TabsChordsTabsTabs v2Ukulele

Intro:
    G  /////volume swell////////////////////
e---------------------------------------------------
B---------------------------------------------------
G---4-----------------------------------------------
D---5-----------------------------------------------
A---5-----------------------------------------------
E---3-----------------------------------------------

Verse:

    G     D    F     G       A    F
e---------------------------------------------------
B---------------------------------------------------
G---4-----7----10----12------6----10----12----------
D---5-----7----10----12------7----10----12----------
A---5-----5----8-----10------7----8-----10----------
E---3-----x*---x*----x*------5----x*----x*----------
   (x9) (x8)  (x10) (x8)   (x18) (x9)  (x8)

*= when I play this song I hold my thumb over the 
E string to mute it for these chords

Solo:
 N.C.
e---------------------------------------------------
B--88/5--10-10-10-10/15-15-15/13/12/13/12/10/8-----
G--7-x/x--x--x--x-x/-x--x-x/-x/-x/-x-/x-/x-/x-----
D--5-5/7--7--7--7-7/-12-12-12/10/9/-10/9-/7-/5-----
A---------------------------------------------------
E---------------------------------------------------

e---------------------------------------------------
B8/1515/1313-13-12-12-12/10-10-10-10/8-8--
G-x/x---x/-xx---x---x---x---x/-x---x---x---x/x-x--
D-5/1212/10-10-10---9---9---9/-7---7---7---7/5-5--
A---------------------------------------------------
E---------------------------------------------------
                              (harmonics)
e---------------------------------------------------
B8/10/8---8---88^-----------(12)(10)-------------
Gx/-x/x---x---xx------------(12)-(10)-------------
D5/-7/5---5---55------------(12)-(10)-------------
A---------------------------------------------------
E---------------------------------------------------

Verse 2

    G    D    F    G
e---------------------------------------------------
B---------------------------------------------------
G---4----7----10---12//////-------------------------
D---5----7----10---12//////-------Drum Solo---------
A---5----5----8----10//////-------------------------
E---3----x----x----x--------------------------------
   (x8) (x9) (x8) (x1)

Verse 3 is the same thing as verse 2, just shorter
Enjoy!!!!





Comments


Popular Sublime tabs & chords
April 26, 1992 1 Bass Tabs
Burritos Bass Tabs
Date Rape 4 Bass Tabs
Dont Push 2 Bass Tabs
Big Salty Tears Tabs
Freeway Time In La County Jail Tabs
What Happened? Tabs
Garden Grove Ukulele
Guava Jelly Ukulele
Seed Ukulele


Song lyrics



↑ Back to top | Tablatures and chords are parodies/interpretations of the original songs. You may use it for private study, scholarship, research or language learning purposes only
© 2014 AZChords.com Contact us | Privacy policy | DMCA | Add/correct tabs | Request tabs | Top 50 tabs