» » »

New Thrash Bass tabs (ver.1)

Artists:  A B C D E F G H I J K L M N O P Q R S T U V W X Y Z # 

New Thrash Bass tabs (ver.1)

Sublime
Rating:
0/5 (0 votes)

Hard to play? Try these video lessons and learn fast.
                (2)
INTRO
G|---|
D|---|
A|---|
E|-3-|

FIRST VERSE
G|-------------------------------------------------------------------|
D|---------------------------------3-3-3-3-3-3-3-3-5-5-5-5-5-5-5/12\-|
A|-----------------5-5-5-5-5-5-5-5-----------------------------------|
E|-3-3-3-3-3-3-3-3---------------------------------------------------|

G|-----------------------------------------------------------------|
D|---------------------------------3-3-3-3-3-3-3-3-5-5-5-5-5-5-5-5-|
A|-5-5-5-5-5-5-5-5-0-0-0-0-0-0-0-0---------------------------------|
E|-----------------------------------------------------------------|

G|---------------------------------------------------|
D|---------------------------------3-3-3-3-3-0-3-0-5-|
A|-5-5-5-5-5-5-5-5-0-0-0-0-0-0-0-0-------------------|
E|---------------------------------------------------|

BRIDGE (or whatever you wanna call it)
G|-------------------------------------------------------|
D|-----5-5-5-5-------------------5-5-5-5-------------3-3-|
A|-------------5-5-3-3-5-5---------------5-5-3-3-3-5-----|
E|-3-3---------------------5-3-3-------------------------|

G|--------------------------------------------------------|
D|-----5-5-5-5-------------------5-5-/12-12-10-10-12-12-8-|
A|-------------5-5-3-3-5-5--------------------------------|
E|-3-3---------------------5-3-3--------------------------|

SECOND VERSE
G|-----------------------------------------------------------------|
D|---------------------------------3-3-3-3-3-3-3-3-5-5-5-5-5-5-5-5-|
A|-5-5-5-5-5-5-5-5-0-0-0-0-0-0-0-0---------------------------------|
E|-----------------------------------------------------------------|

G|---------------------------------------------------|
D|---------------------------------3-3-3-3-3-3-3-3-5-|
A|-----------------5-5-5-5-5-5-5-5-------------------|
E|-3-3-3-3-3-3-3-3-----------------------------------|

THIRD VERSE
G|---------------------------------------------------|
D|---------------------------------3-3-3-3-3-3-3-3-5-|
A|-5-5-5-5-5-5-5-5-0-0-0-0-0-0-0-0-------------------|
E|---------------------------------------------------|

OUTRO
G|----------|
D|----------|
A|-10---///-|
E|----------|
            
Hard to play? Try these video lessons and learn fast. | Correct




comments powered by Disqus
↑ Back to top | Tablatures and chords are parodies/interpretations of the original songs. You may use it for private study, scholarship, research or language learning purposes only