» » »

Sublime, Lincoln Highway Dub Bass tabs (ver.2)

Artists:  A B C D E F G H I J K L M N O P Q R S T U V W X Y Z # 

Lincoln Highway Dub Bass tabs (ver.2)

Sublime Tabs
 Rating:
4/5 (4 votes)
Lincoln Highway Dub lessons Tabs too difficult? Try these video lessons and learn fast
1
                "Band: Sublime


 Intro:
 |------------------------------------------------|
 |--------------------------------------------(5)-|
 |-8---8-8-8--8---8-8-8-----------------(4)---(3)-|
 |---8----------8--------5-0-5-5-5-(5)------------|

 Verse: Variation 1
 |------------------------------------------------------|
 |-------------------------10---10--7--7-------7--7-7-7-|
 |------8--8--8-8-10--8--8----8----------7h9-7----------|
 |-8h10-------------------------------------------------|

 |--------------------------------------------------|
 |----------------------------------------------3h5-|
 |-5-5---5-5---5-5-5-5-5--3-3---3-3---3-3---3h5-----|
 |-----5-----5----------------3-----3-----3---------|

 Verse: Variation 2
 |----------------------------------------------------|
 |----------------8h10-10--7-7--7---------------------|
 |-8--8------8--8-----------------7-7--7----------5h7-|
 |------8h10-----------------------------5--5-5h7-----|


 |---------------------------------------------------|
 |---------------------------------------------------|
 |-5-5------5-5--5-5-5--5--3-3--3-3-3--3-3-3--3-3--2-|
 |-----5h7-------------------------------------------|

 Chorus: Variation 1
 |---------------------------------------------------------|
 |---------------------------------------------------------|
 |-------------------------------8--8-8--7--7-7--5---------|
 |-6--6-6-6--6-6--8--8-8-8--8-8--------------------5-5-5-5-|

 Chorus: Variation 2
 |---------------------------------------------------------|
 |--------------------------------10------9------7---------|
 |---8-------------10-----------8----8--7---7--5---5-------|
 |-6---6-6--6-6--8----8-8--8-8---------------------------5-|

 Chorus: Variation 3
 |---------------------------------------------------------|
 |---------------------------------------------------------|
 |------------------10-----------8--8-8--7--7-7--5---------|
 |-6--6-6-6--6-6--8----8-8--8-8--------------------5-5-5-5-|
 
 |----------------------------------|
 |----------------------------------|
 |----------------------------------|
 |-6-6--6-6-6--6-6--8-8--8-8-8--8-8-|


 Verse: Variation 3
 |----------------------------------------------------|
 |----------------8h10-8h10--7-7--7-------------------|
 |-8--8------8--8-------------------7-7--7----------5-|
 |------8h10-------------------------------5--5-5h7---|


 |---------------------------------------------------|
 |-----------------------------------------------3h5-|
 |-5-5------5-5--5-5-5--5--3-3---3-3---3-3---3h5-----|
 |-----5h7---------------------3-----3-----3---------|

 Verse: Variation 4
 |----------------------------------------------------|
 |----------------8h10-8h10--7-7--7-------------------|
 |-8--8------8--8-------------------7-7--7----------5-|
 |------8h10-------------------------------5--5-5h7---|


 |-------------------------------------------------------------|
 |-------------------------------------------------------------|
 |-5-5------5-5---5-5--5/15--15-15----15-15----15-15--15-15-14-|
 |-----5h7------5------------------15-------15-----------------|
 
 
 Chorus: Variation 4
 |---------------------------------------------------------|
 |---------------------------------------------------------|
 |------------------10-----------8--8-8--7--7-7--5---------|
 |-6--6-6-6--6-6--8----8-8--8-8--------------------5-5-5-5-|
 

 Chorus: Variation 5
 |---------------------------------------------------------|
 |---------------------------------------------------------|
 |-------------------------------8--8-8--7--7-7--5---------|
 |-6--6-6-6--6-6--8--8-8-8--8-8--------------------5-5-5-5-|

 Chorus: Variation 6
 |---------------------------------------------------------|
 |---------------------------------------------------------|
 |-------------------------------8--8-8--7--7-7--5---------|
 |-6--6-6-6--6-6--8--8-8-8--8-8--------------------5-5-5-5-|

 |----------------------------------|
 |----------------------------------|
 |----------------------------------|
 |-6-6--6-6-6--6-6--8-8--8-8-8--8-8-|


 Verse: Variation 5
 |----------------------------------------------------|
 |----------------8h10-10--7-7--7---------------------|
 |-8--8------8--8-----------------7-7--7----------5h7-|
 |------8h10-----------------------------5--5-5h7-----|


 |------------------------------------------------------|
 |--------------------------------------------------3h5-|
 |-5-5------5-5--5-5-5--5--3-3--3-3-3--3-3-3--3-3h5-----|
 |-----5h7----------------------------------------------|

 Break in Bassline

 Then:
 |---------------------------------------------------|
 |---------------------------------------------------|
 |-5-5------5-5--5-5-5--5--3-3--3-3-3--3-3-3--3-3--2-|
 |-----5h7-------------------------------------------|

 
 Chorus: Variation 7
 |------------------------------------------------------------|
 |---------------------------------10------9------7-----------|
 |------------------10-----------8----8--7---7--5---5---------|
 |-6--6-6-6--6-6--8----8-8--8-8-----------------------5-5-5-5-|


Chorus: Variation 8 (Trails off at the end)
 |------------------------------------------------------------|
 |---------------------------------10------9------7-----------|
 |-------------------------------8----8--7---7--5---5---------|
 |-6--6-6-6--6-6--8--8-8-8--8-8-----------------------5-5-5-5-|

|KEY|

()= Let Ring
h = Hammer On
/ = Slide Up
"            
Submit corrections

comments powered by Disqus
↑ Back to top | Sublime Bass for Lincoln Highway Dub. Lyrics for acoustic guitar and electric guitar. 1 Tablatures and chords are parodies/interpretations of the original songs. You may use it for private study, scholarship, research or language learning purposes only