» » »

Lincoln Highway Dub Tabs (ver.1)

Artists:  A B C D E F G H I J K L M N O P Q R S T U V W X Y Z # 

Lincoln Highway Dub Tabs (ver.1)

Sublime
Rating:
0/5 (0 votes)

Hard to play? Try these video lessons and learn fast.
                "Tuning: standard (eadgbe)


noticed a few errors (mostly typos (missing out a number or writting on the 
wrong line)) whilst checking this (probably should have checked it before 
submitting it. hopefully the higher powers (admins) will remove the other one)




Im not gonna pretend its perfect but as far as i know its the only one on 
the net (or anywhere. i havent even found a tab for sale for this song). 
numbers in brackets near the beggining are played on the bass but if ur 
playing it un-acompanied u may as well add them in yourself (which is why 
i put them there)


   Intro (over words):
e|-----|---------------------|-----------------|---------------|-------|---|
B|---9-|-X-X-10--------------|-----------------|---------------|-X-X---|---|
G|---9-|-X-X-10--------------|-10--------------|---------------|-X-X---|---|
D|---9-|-X-X-10--------------|-10--------------|-7-------------|-X-X-7-|---|
A|-7-7-|-----8-----(8)(8)(8)-|-8-----(8)(8)(8)-|-7-------------|-----5-|-10|
E|-----|--------(8)----------|----(8)----------|-5-(0)(0)(5)(5)|-------|-8-|


     This lines all done on the bass
e|-------------------------------------------------------------------------|
B|-------------------------------------------------------------------------|
G|-------------------------------------------------------------------------|
D|-------------------8h10-8h10--7-7-------7--------------------------------|
A|------8-8-8-8-10-8----------------7h9p7----------------------------------|
E|-8h10--------------------------------------------------------------------|


    back to guitar for some picked chords
e|-------------------|--------------------------|-------------------------|
B|-----6-----5h6p5---|--------------------------|-------------------------|
G|-------7---------7-|--------------------------|------10--------10-------|
D|---7-----7---------|---10---------------------|---10----10--------10----|
A|-5-----------------|------10-------------8h10-|-8----------8-8-------8--|
E|-------------------|-8-------8--8-8-8h10------|-------------------------|


e|-----------------------|---------------------|--------------------------|
B|-----------------------|-----6---------6-----|--------------------------|
G|-----------6-----6-----|-----7-7-------7-7---|------9-------------------|
D|-----7-------7-----7---|---7-----7---7-----7-|--------10----------------|
A|---7---7-------7-----7-|-5---------5---------|---10------10-------------|
E|-5-------5-------------|---------------------|-8------------8-8--7-7-6--|


      Then its just one big guitar solo here on in
e|-------------------------------------------------------------------------|
B|-------------------------------------------------------------------------|
G|-----------------------------10-12b(14)-12-10-9h10p9----9----------------|
D|--------------------10-10h12-------------------------12---10/12----------|
A|----------8-8-10/12------------------------------------------------------|
E|-6-6-8/10----------------------------------------------------------------|


e|-------------------------------------------------------------------------|
B|-------------------------------------------------------------------------|
G|-------------------------------------------------------------------------|
D|-10/12-10----------------------------------------------------------------|
A|----------12-11-10-10-8h10p8-10------8------8------8------8--------------|
E|--------------------------------8h10---8h10---8h10---8h10-------8h10-----|


e|-------------------------------------------------------------------------|
B|-----------------add a bit of palm mute around here------------------6---|
G|-----------------------------------------------------10------9-----7---7-|
D|-----------------10--10-12-12-12-10--10-10-10--10/12----8/10---6/8------8|
A|-----------10h12---------------------------------------------------------|
E|-8-8-10/12---------------------------------------------------------------|


e|-------------------------|-----------------------------------------------|
B|-------------------------|-----------------------------------------------|
G|-----7-----------9-------|---------------10-12b(14)rb12-10-9~-9-7-9~-----|
D|-------8-----------10----|---------10/12---------------------------------|
A|---8-----8----10------10-|-8-10/12---------------------------------------|
E|-6----------8------------|-----------------------------------------------|


e|-------------------------------------------------------------------------|
B|-------------------------------------------------------------------------|
G|-7-7\5---5---------------------------------------------------------------|
D|-------7---(6)rb5-3-3h5p3---3-----------3---3---3---3---3---3---3---3----|
A|--------------------------5---5--555-3h5-3h5-3h5-3h5-3h5-3h5-3h5-3h5-----|
E|-------------------------------------------------------------------------|

                      V possibly most beutiful V
                      V   part of the song     V
e|------------------------------------------|------------------------------|
B|--------------------------6-5h6p5---------|------------------------------|
G|----------------------5-7---------7-5-7---|-/7-7-5-----------------------|
D|------3-5-3h5p3-3/5-7-------------------7-|--------7-6-5-5-3h5p3---------|
A|-/3-5-------------------------------------|----------------------5-------|
E|------------------------------------------|------------------------------|


e|-------------------------------------------------------------------------|
B|-----------------------------------------------------6-----6~-5-5--------|
G|-------------------------------------------------5-7---7-5--------7------|
D|-----3-----3-----3-------------------3-5-5-3-5/7-------------------------|
A|-3h5---3h5---3h5---3h5-3---3-3-3-3/5-------------------------------------|
E|-------------------------------------------------------------------------|


e|-------------------------------------------------------------------------|
B|-------6-----------------------------------------------------------------|
G|--/5-7---5h7-5-----------------------------------------------------------|
D|---------------3-5b(6)rb5p3-3-------3h5b(6)rb5-3h5p3---------------------|
A|--------------------------------3h5------------------5-5-3h5p3-----------|
E|-------------------------------------------------------------------------|


e|---------------------------------------------------|---------------------|
B|---------------------------------------------------|---------------------|
G|----------------------5----------------------------|---------------------|
D|-----------3h5p3-5b(6)--5-(6)rb5-3-3h5p3---3-------|-3-5b(6)5-3-3--2/3---|
A|-----3h4h5-------------------------------5---5-5-5-|---------------------|
E|-3/5-----------------------------------------------|---------------------|

lil bit of pause

e|--------------------------------------8------------------8---------------|
B|-----------------------10------10-------8-----------8------8--------8----|
G|---9-9-9---9-9-9---9-7----9-7----9-7------9-------9----------9----9------|
D|-7-------7----------------------------------10-10-----10-------10--------|
A|-------------------------------------------------------------------------|
E|-------------------------------------------------------------------------|

bit of a bigger pause (with a lil bita drumin)

            this run down should                           hold that bend 
e|-----------|- look familiar --------------------------------  |  a lil --|
B|-----------|------------------------------------------------- V   bit ---|
G|--9-9-7-9~-|-7-7\5---5------3-3h5p3---3-------3-5-5-5-3~---5b(6)rb5-3-5-3|
D|-----------|-------7---(6)5---------5---5-3h5------------5---------------|
A|-----------|-------------------------------------------------------------|
E|-----------|-------------------------------------------------------------|

    
e|-13--13-13--13--|--6---------8-------------------------------------------|
B|-13--13-13--13--|----6---------8---------- finishing with a fade out ----|
G|-14--14-14--14--|------7---------9---------- whilst playing this line ---|
D|----------------|--------8---------10------------------------------------|
A|----------------|--------------------------------------------------------|
E|----------------|--------------------------------------------------------|




| 5b(6)  bend from note outside  of bracket to note inside 
| (6)rb5 reverse bend (start with string bent to note in bracket and come 
down to note outside bracket)

| /  slide up
| \  slide down
| h  hammer-on
| p  pull-off
| ~  vibrato
| x  Mute note
"            
Hard to play? Try these video lessons and learn fast. | Correct




comments powered by Disqus
↑ Back to top | Tablatures and chords are parodies/interpretations of the original songs. You may use it for private study, scholarship, research or language learning purposes only