>
 >
Krs-one 1

Krs-one 1 Guitar Tabs

Sublime - Krs-one 1 chords, tabs, tablatures, lyrics

Guitar lessons | Add/correct | Request | Top 50 tabs Artists:  A B C D E F G H I J K L M N O P Q R S T U V W X Y Z 0-9

Krs-one 1 Guitar Tabs – Sublime

CD, Sheet music, Poster

Do you like Krs-one 1? Share with your friends now
Tabs

INTRO

e------------------------------------------------------------------------------------------|
b----1--1--------1--------1---------1--------1---------1------------1----------1-----------|
g----0--0--2-----2--------0---------2--------2---------2------------0----------2-----------|
d-2--------------2-----2------------------2---------2--2---------2----------2--------------|
a-3-----------0-----0--3-----0---0-----0--3-----0---0--0--0---3--------0-------------------|
E---------------------------------------------------------------------------------0--------|

e--------------------------------------------------------------------------------------------|
b------0-------------------------------------3--3--3--3--3--3--3--3--3--3--3--3--3--3--3--3--|
g--2---0----------------2--------------------1--1--1--1--1--1--1--1--1--1--1--1--1--1--1--1--|
d--3---0----------------3--------------------2--2--2--2--2--2--2--2--2--2--2--2--2--2--2--2--|
a--3---x----------------3--2-----------------------------------------------------------------|
E--1---3----------------1--3-----------------------------------------------------------------|
           TAP GUITAR

VERSE 1

e----------------------------------------------------------------------------------------------|
b-------1-------------1------------------------------------------------------------------------|
g-------0---0---------2---2-----0--------------0-------------------2------0--------------------|
d-2---------2---2--0------2--------2---x-----------0----2-----0----2---------------------------|
a-3--0------0---3------------0-----3---------------2----3-------------3------------------------|
E------------------------------------------3---------------------------------------------------|

CHORUS

e--------------------------------------------------------------------------------------|
b--------------------------------------1------------------1----------------------------|
g-2------------2-----------------------0------------------2---2------2---0-------------|
d-3------------3---------------------------2---0---2---0--2----------3-----------------|
a-3--------3---3--------0--3----3---x--------------3---0-------------3-----------3-----|
E-1----5-------1----5--------------------------------------------0---1------5----------|

e-----------------------------------------------------------------|
b--------------------------------------0---------------------0----|
g--2--------------0---0----0---0---0---------0---0---0---0--------|
d--3--------------0---0--------2---0------0------2---0---0--------|
a--3-------0--3---2---2--------3---2------2------3---2------------|
E--1---5----------3----------------3-----------------3------------|

PLAY VERSE


CHORUS(DIFFERENT THAN FIRST)

e--------------------------------------------------------------------------------------|
b--------------------------------------1------------------1----------------------------|
g-2------------2-----------------------0------------------2---2------2---0-------------|
d-3------------3---------------------------2---0---2---0--2----------3-----------------|
a-3--------3---3--------0--3----3---x--------------3---0-------------3-----------3-----|
E-1----5-------1----5--------------------------------------------0---1------5----------|


e---------------------------------------------------|
b---------------------------------------------------|
g-2------------0------------------------------------|
d-3------------0------0-0-0-0-0-0-0-0-0-0-0--0--0---|
a-3------0--3--2------2-2-2-2-2-2-2-2-2-2-2--2--0---|
E-1---5--------3------3-3-3-3-3-3-3-3-3-3-3--3------|

INTERLUDE WITH TURNTABLES

e------------------------------------------------------------------------0---------------|
b-----0-----0-----0----0---0-------0------0----0-------0-----0----0------0-------0---0---|
g-----7-----7-----7----5---5--(5)--7------7----7-------5-----5----5--------------7---7---|
d-6---6-----6----------4---4--(4)---------6----6---6---------4-------------------6---6---|
a-7------7-----7-----5-----------------7-----------7------5----------5-------7-----------|
E----------------------------------------------------------------------------------------|

e------------------------------------------------------------------------|
b-----0-------0----0----------0--0--0--0--0--0--0--0---0-----------------|
g-----5-------5----5----------7--7--7--7--7--7--7--7---7-----------------|
d-------------4----4----------6--6--6--6--6--6--6--6---6-----------------|
a--7------5-----------5--6----7--7--7--7--7--7--7--7---7-------5---------|
E------------------------------------------------------------------2-----|

VERSE 3

e-----------------0------------0---0-------------------------|
b--1--------------1--------1---1---1----------------0--------|
g--0--------------2--------0---2---2----------------0--------|
d--2--------------2--------2---2---2--2---2------------------|
a--3--------------0--------3----------0---3-------------2----|
E----------------------------------------------3-------------|
       TAP GUITAR

                     CHORUS
e-----------------------------------------------------------|
b-----------------------------------------------------------|
g--0-------------------2-------------2----0------2---0------|
d--2-----0----0--------3-------------3----0--2---2---0------|
a--3-----2-------------3--------3----3-----------0---x------|
E--------3--------0----1---5---------1---------------3------|

e-----------------------------------------------------------|
b------1---------------------1---1--------------------------|
g------0---------0---0-------2---2-------2------------------|
d--2-------2---------2---0---2-----------3------------------|
a--3---------0-------3---0---------------3-----------3------|
E-----------------------------------0----1----5-------------|

e--------------------------------------------------------------------------|
b--------------------------------------------------------------------------|
g-2------------------------------------------------------------------------|
d-3------------------------------------------------------------------------|
a-3---------0--3----5---5--5--5--5--5--5--5--5--5--5--5--5--5--5----5------|
E-1-----5-----------3---3--3--3--3--3--3--3--3--3--3--3--3--3--3----3---0--|


INTERLUDE

e-----------------------------------------------------------------|
b-----6----------6--------------4--------4------6-----6-----------|
g-----4----------4--------------2--------2------4-----4------2----|
d-----------------------------------------------------------------|
a-5------------------------------------------5--------------------|
E-3------0---0-------0---1---1-----1--1------3-----0-----0--------|

e-------------------------------------------------------------------------|
b----4----------4-------------6---------6--------------4---------4--------|
g----2----------2-------------4---------4-------2------2---------2--------|
d-------------------------------------------------------------------------|
a---------------------------------------------------3---------------------|
E--1----0---0------0---0---3-----0---0------0-------1-----0---0-----0--0--|

e------------------------------------------------------------------------|
b----6---------6---------------------4--4--4--4--4--4--4--4--4--4--4-----|
g----4---------4---------------------2--2--2--2--2--2--2--2--2--2--2-----|
d------------------------------------x--x--x--x--x--x--x--x--x--x--x-----|
a------------------------3--3--3--3--3--3--3--3--3--3--3--3--3--3--3-----|
E-3-----0---0-----0---0--1--1--1--1--1--1--1--1--1--1--1--1--1--1--1-----|


CHORUS

e---------------------------------------0--------0-------------|
b---------------------------------------1--------1-------------|
g--2----2--2---2------2-----2--2--2-----0--------2----2---0----|
d--3----3--3---3---x--3--x--3--3--3--x--2--------2-------------|
a--3----3--3---3---x--3--x--3--3--3--x--3----0---0-------------|
E--1----1--1---1---x--1--x--1--1--1--x-------------------------|


e--0------0-------------------------------------------------------|
b--1------1-------------------------------------------------------|
g--0------2---2--------2------2--2-------2---2-------2---2--------|
d--2------2------------3---x--3--3---x---3---3---x---3---3---x----|
a--3---0--3------------3---x--3--3---x---3---3---x---3---3---x----|
E-----------------0----1---x--1--1---x---1---1---x---1---1---x----|


e--3-------------------0-------------|
b--3-------------------1-------------|
g--0-------------------3-------------|
d--0-------------------2-------------|
a--2---------------------------------|
E--3---------------------------------|





Comments


Popular Sublime tabs & chords
Under My Voodoo Bass Tabs
Waiting For My Ruca 3 Bass Tabs
We're Only Gonna Die 1 Bass Tabs
What I Got 3 Bass Tabs
Ballad Of Johnny Butt 1 Chords
Boss D.J Chords
Crazy Fool Chords
D.J.S Chords
Santaria Drum Tabs
Superstar Punani 1 Tabs


Song lyrics



↑ Back to top | Tablatures and chords are parodies/interpretations of the original songs. You may use it for private study, scholarship, research or language learning purposes only
© 2014 AZChords.com Contact us | Privacy policy | DMCA | Add/correct tabs | Request tabs | Top 50 tabs