» » »

Krs - One Tabs (ver.1)

Artists:  A B C D E F G H I J K L M N O P Q R S T U V W X Y Z # 

Krs - One Tabs (ver.1)

Sublime
Rating:
0/5 (0 votes)

Hard to play? Try these video lessons and learn fast.
                Intro
E|-1------------1----------------------|
B|-1----1111----1----1111--------------|
G|-0----2222----0----2222--------------|
D|-2----2222----2----2222--------------|
A|-3------------3----------------------|
E|-------------------------------------|

E|-1----3----1----3--------------------|
B|-1----3----1----3--------------------|
G|-0----0----0----0--------------------|
D|-2----0----2----0--------------------|
A|-3----2----3----2--------------------|
E|------3---------3--------------------|

While DJ's playin
E|-------------------------------------|
B|-------------------------------------|
G|-------------------------------------|
D|-5555555555--------------------------|
A|-5555555555--------------------------|
E|-------------------------------------|

Verse
E|-1------------1----------------------|
B|-1----1111----1----1111--------------|
G|-0----2222----0----2222--------------|
D|-2----2222----2----2222--------------|
A|-3------------3----------------------|
E|-------------------------------------|

Chorus
E|-------------------------------------|
B|-------------------------------------|
G|-------------------------------------|
D|-------------------------------------|
A|-3----0----3-------------------------|
E|-1-----------------------------------|

Verse
E|-1------------1----------------------|
B|-1----1111----1----1111--------------|
G|-0----2222----0----2222--------------|
D|-2----2222----2----2222--------------|
A|-3------------3----------------------|
E|-------------------------------------|

Chorus
E|-------------------------------------|
B|-------------------------------------|
G|-------------------------------------|
D|-------------------------------------|
A|-3----0----3-------------------------|
E|-1-----------------------------------|

while DJ's playing (repeat)
E|-------------------------------------|-------------------------|
B|-------------------------------------|-------------------------|
G|-------------------------------------|-------------------------|
D|-555555--7--7--7~--7--7--7~----------|-777777777---------------|
A|-555555--7--7--7~--7--7--7~----------|-777777777---------------|
E|-------------------------------------|-------------------------|

Verse
E|-1------------1----------------------|
B|-1----1111----1----1111--------------|
G|-0----2222----0----2222--------------|
D|-2----2222----2----2222--------------|
A|-3------------3----------------------|
E|-------------------------------------|

Chorus
E|-------------------------------------|
B|-------------------------------------|
G|-------------------------------------|
D|-------------------------------------|
A|-3----0----3-------------------------|
E|-1-----------------------------------|

while DJ's playing
E|-------------------------------------|
B|-------------------------------------|
G|-------------------------------------|
D|-7--7~--5--5~--7--7~--5--5~----------|
A|-7--7~--5--5~--7--7~--5--5~----------|
E|-------------------------------------|

end chorus repeat
E|-111111------------------------------|
B|-111111--1111111---------------------|
G|-000000--2222222---------------------|
D|-222222--2222222---------------------|
A|-333333------------------------------|
E|-------------------------------------|

end on
|--3--|
|--3--|
|--0--|
|--0--|
|--2--|
|--3--|

KRS-One lyrics

In school they never taught bout hamburgers or steak, 
Elijah Muhammed or the welfare state, 
but I know. 
And I know because of KRS-ONE. 
Yeah, and I know. 
And I know because of KRS-ONE.  
Because he's droppin' droppin' droppin' science, 
droppin' history 
With a whole leap of style and intelligency 
yes, I know. 
And I know because of KRS-ONE 
Yeah, and I know 
And I know... 

Because we don't want to pay no money fee to hear the same old sounds. 
Watch and we'll take hip-hop to a higher ground. 
And I know  
How do I know? 
And I know because of KRS-ONE.  
Yeah, and I know 
And I know because... 

You must learn! 
And I know, 
And I know because of KRS-ONE. 
Hoo!  And I know, 
And I knoooow, yeah. 

shoutouts to my loved ones
            
Hard to play? Try these video lessons and learn fast. | Correct




comments powered by Disqus
↑ Back to top | Tablatures and chords are parodies/interpretations of the original songs. You may use it for private study, scholarship, research or language learning purposes only