» » »

Sublime, Ebin Bass tabs (ver.1)

Artists:  A B C D E F G H I J K L M N O P Q R S T U V W X Y Z # 

Ebin Bass tabs (ver.1)

Sublime Tabs
Rating:
0/5 (0 votes)
Ebin  lessons Tabs too difficult? Try these video lessons and learn fast
                (2)
Intro/Verse
G|-------------------8----------10-10--------8-----8---------------|
D|--------------8-10---10-------------8-9-10----10---------------8-|
A|---------8-10------------8-8------------------------------8-10---|
E|-8--8-11------------------------------------------8--8-11--------|

Intro/Verse Contd                   End with this sometimes
G|----8-------10-10-10--------8-10-*--------------------|
D|-10---10-------------8-9-10------*--10-10-9-9-8-8-6---|
A|----------8----------------------*------------------8-|
E|---------------------------------*--------------------|

"Out my window"
G|--------------------------------|
D|--------------------------------|
A|---3------------------3---------|
E|------------1-------------------|

"It feels like my whole life..."
G|-------------------------------|
D|-------------------------------|
A|-----------------3-----3-------|
E|-4-----3------------3----------|

"oh you've changed"
G|------------------------------------------|
D|------------------------------------------|
A|--3---------6---------1-------------------|
E|--------------------------------1---------|

"I give you a hard time"
G|-----------------------------------------------------------------|
D|-----------------------------------------------------------------|
A|--3-3-1-3-3---1-3-3--1-3-3---5-6-6---5-6-6---5-6-6--0-1-1--0-1-1-|
E|-----------------------------------------------------------------|

Contd
G|------------------------|
D|------------------------|
A|-1-1--0-1-1-------------|
E|--------------1-1-1-1---|

"my friend Ebin is a natzi"          repeat with some minor alterations
G|-----------------------------------------------------2-2-3-3-5-5----|
D|---------3-3-5-5-----8-8-6-6-5-5-----0-0-1-1-3-3-3-3----------------|
A|-3-3-6-6---------6-6-------------1-1--------------------------------|
E|--------------------------------------------------------------------|
            

comments powered by Disqus
↑ Back to top | Sublime Bass for Ebin. Lyrics for acoustic guitar and electric guitar. Tablatures and chords are parodies/interpretations of the original songs. You may use it for private study, scholarship, research or language learning purposes only