» » »

Ebin Tabs (ver.1)

Artists:  A B C D E F G H I J K L M N O P Q R S T U V W X Y Z # 

Ebin Tabs (ver.1)

Sublime
Rating:
0/5 (0 votes)

Tabs too difficult? Try these video lessons and learn fast.
                --7-----------------------7---------------------|---7--------5--6--7----0-----
--7-----------------------8---------------------|---7--------5--6--7----0-----
--7-----------------------9-----9----------7-9--|---7--------5--6--7----7-----
--9------9----------7-9---9----------6-7-9------|---9--------7--8--9----6-----
--9-----------6-7-9-------7---7----7------------|---9--------7--8--9----7-----
--7----7----7-----------------------------------|---7--------5--6--7----0-----
    (--bass arr. for guitar)                    listen to song for rythmn     

----3----2-3---5---6---7------0------|-----------7----------------------------
----3----2-3---5---6---7------0------|-------------7---------------7------8p7-
----4----3-4---6---7---7------7------|-----7--7------7--------7-7----7--------
----5----4-5---7---8---9------6------|-----9----------------7----------7------
----5----4-5---7---8---9------7------|-----9--------------5-------------------
----3----2-3---5---6---7------0------|-----7----------------------------------
 "Feels like my whole life..."         "Oh you've changed"(slower part)       

---------------5--------------|--7-----------5------|-------------------------
----7------------5-------9----|--7-----7-----5----9-|-------------------------
------7--6--6------6--9----9--|--7-----7-----6----9-|-------------------------
--7------7------------9------9|--9-----7-----7----9-|-------------------------
---------7------------7-------|--9-----5-----7----7-|-------------------------
---------5--------------------|--7-----------5------|-------------------------
                                get funky              again... listen to     

 the song if you don't already know how it goes... I just gave you the        

 chords to use with other riffs it's up to you to put it together.
            
Tabs too difficult? Try these video lessons and learn fast.


comments powered by Disqus
↑ Back to top | Tablatures and chords are parodies/interpretations of the original songs. You may use it for private study, scholarship, research or language learning purposes only