» » »

Sublime, Doin Time Bass tabs (ver.5)

Artists:  A B C D E F G H I J K L M N O P Q R S T U V W X Y Z # 

Doin Time Bass tabs (ver.5)

Sublime Tabs
 Rating:
4/5 (4 votes)
Doin Time lessons Tabs too difficult? Try these video lessons and learn fast
                -------------------------------------------------------------------------------
                 DOIN' TIME (UPTOWN DUB) - Sublime
-------------------------------------------------------------------------------

//: This is as pretty much as accurate as I could make it --and I tried to
remain as close to the recording as I could-- but I can guarantee that there
are some notes I missed (especially in some of the VI->I changes), and there
are probably notes that only I can hear in my head. :)

Anyway, here you go.

Tuning: Standard

     Bass Intro (:00)         Band Enters  (:03)
G|--||------------------|-----------------------|
D|--||------------------|-----------------------|
A|--||----------3-6-5\x-|-----------3-6-5-------|
E|--||-3--5-6*-3--------|-3--5-66-3-------6\----|

     Main Groove x3 [Just start playing around with this, it's a really fun line)
G|--|-------------------------------------------|
D|--|-------------------------------------------|
A|--|------------3-6-5--------------------------|
E|--|--3--5-66-3-------6------------------------|

(0:16) UP A FOURTH!!!                                    
G|--|----------------------------------------------|
D|--|--------5---------6---------------------------|
A|--|--3---6-----6-3-----55-4-----565-3---5--------|
E|--|--------------------------3--------3----------|

(0:22) Sit on the groove line for a while, while everyone else does the real work ;]
G|--|----------------------------------------------|
D|--|----------------------------------------------|
A|--|------------3-6-5-----------------------------|
E|--|--3--5-66-3-------6---------------------------|

(0:55) UP A FOURTH ONCE MORE!!!  mind that this ending is different than before.
G|--|-----------------------------------------------|
D|--|--------5---------6----------------------------|
A|--|--3---6-----6-3-----55-4-----65-4-3--5-3-------|
E|--|---------------------------5-------------66-5--|

     Back to our trusty groove...
G|--|-------------------------------------------|
D|--|-------------------------------------------|
A|--|------------3-6-5--------------------------|
E|--|--3--5-66-3-------6------------------------|
 
(1:12) Vocals Enter
G|--|-------------------------------------------|
D|--|-------------------------------------------|
A|--|------------3-6-5--------------------------|
E|--|--3--5-66-3-------6------------------------|


(1:35) Rhythm / Break Intro 
G|--|---------------------------------------------|
D|--|---------------------------------------------|
A|--|--3----3----3--3--3---------------5o---------|
E|--|-------------------------5o------------------|
   
(1:41) For the Break, play the main line, but slowed down.
G|--|---------------------------------------------|
D|--|---------------------------------------------|
A|--|--------------------3--6--5------------------|
E|--|----3----5--6-6--3-----------6---------------|


(2:08) Come back in with the main line again, and we're in the home stretch 
G|--|--------------------------------------------|
D|--|--------------------------------------------|
A|--|------------3-6-5---------------------------|
E|--|--3--5-66-3-------6-------------------------|

(2:58) Rhythm / Break
G|--|---------------------------------------------|
D|--|---------------------------------------------|
A|--|--3----3----3--3--3---------------5o---------|
E|--|-------------------------5o------------------|

(3:01) Break to end (Last beat is not played in the recording, but play it if you want)
G|--|---------------------------------------------|
D|--|---------------------------------------------|
A|--|--------------------3--6--5------------------|
E|--|----3----5--6-6--3-----------6---------------|


| /  slide up
| \  slide down
| h  hammer-on
| p  pull-off
| ~  vibrato
| +  harmonic
| *  staccato
| o  Let ring
| x  Mute note
===============================================================================
            
Submit corrections

comments powered by Disqus
↑ Back to top | Sublime Bass for Doin Time. Lyrics for acoustic guitar and electric guitar. Tablatures and chords are parodies/interpretations of the original songs. You may use it for private study, scholarship, research or language learning purposes only