» » »

Doin' Time 1 Tabs

Artists:  A B C D E F G H I J K L M N O P Q R S T U V W X Y Z # 

Doin' Time 1 Tabs

(ver. 2)
Sublime Tabs
 Rating:
4/5 (4 votes)
    Doin Time lessons Tabs too difficult? Try these video lessons and learn fast
                ----------------------------------|-----------------------------|-------------
------3----5----------------------|-----------------------------|-------------
------3----5----------------------|-----------------------------|-------------
--5-------------------------------|-----------------------------|-------------
----------------------------------|----------------3---6--5-----|-------------
--3-------------------------------|--3---6--6---3------------6--|-------------
              x4(background riff)   (bass line)             repeat            

----3-------------------------------------------------------------------------
----3--------5----------4--------6--------------------------------------------
----3--------5----------5--------7--------------------------------------------
----5--------5----------5--------7--------------------------------------------
----5--------3----------3--------5--------------------------------------------
----3-------------------------------------------------------------------------
  guitar arrangment                     alright kids... now stick it          

 together
            
Submit corrections

↑ Back to top | Sublime Tabs for Doin Time. Lyrics for acoustic guitar and electric guitar. Tablatures and chords are parodies/interpretations of the original songs. You may use it for private study, scholarship, research or language learning purposes only