» » »

Doing Time Bass tabs (ver.1)

Artists:  A B C D E F G H I J K L M N O P Q R S T U V W X Y Z # 

Doing Time Bass tabs (ver.1)

Sublime
Rating:
0/5 (0 votes)

Hard to play? Try these video lessons and learn fast.
                Normal tuning : E, A, D, G



Riff 1
  1-e-&-a-2-e-&-a-3-e-&-a-4-e-&-a 
G|-------------------------------|                        
D|-------------------------------|
A|------------5---3---6---5------| 
E|3-------6-----6-------------6--|

* Riff 2 is not entirely correct but it does deal with the root 
  and fifth that is written. Don't b**ch, just play with it.

Riff 2
  1-e-&-a-2-e-&-a-3-e-&-a-4-e-&-a 1-e-&-a-2-e-&-a-3-e-&-a-4-e-&-a
G|-------------------------------|-------------------------------|
D|-------------------------------|-------------------------------|
A|--------10--------------10-----|--------7---------------7------|
E|8---------------8--------------|5---------------5--------------|
            
Hard to play? Try these video lessons and learn fast. | Correct




comments powered by Disqus
↑ Back to top | Tablatures and chords are parodies/interpretations of the original songs. You may use it for private study, scholarship, research or language learning purposes only