>
 >
Burritos

Burritos Guitar Tabs

Sublime - Burritos chords, tabs, tablatures, lyrics

Guitar lessons | Add/correct | Request | Top 50 tabs Artists:  A B C D E F G H I J K L M N O P Q R S T U V W X Y Z 0-9

Burritos Guitar Tabs – Sublime

CD, Sheet music, Poster

Do you like Burritos? Share with your friends now
Bass TabsChordsTabsTabs v2Ukulele

**normal tuning**

Intro: 
e|----------------------------------------------------------------------------------|
B|---------------------------------------------------6------------------------------|
G|--------------h--5-7------------------------h--5-7---7p5-------5--p---------------|
D|-------3-5-3-5/7---------3-5-3(3)----3-5-3-5/7-----------5-5h7---5/3-----3---3-5/-|
A|-3h5-5---------------3-5----------5\---------------------------------3h5---5------|
E|----------------------------------------------------------------------------------|

e|------------------------------------10---------------------------------------------|
B|------------------------------p--h-----13-10---------------------------------------|
G|-5-7---------5-7-7-7p5---5---5\2/11----------12b(12)p10---------------------------
D|-----5h7-7-7-----------7---7----------------------------12-10h12-------10---
A|-----------------------------------------------------------------10h12----10\8---10/12
E|-------------------------------------------------------------------------------10-8h10-8------

e|------------------------------------------------------------------------------------
B|----------------~~--------------------------------------------------------
G|-10----10-10-10-12-(12)\-----------------------------------------------h------------15-14
D|-10----------------------/17-0-10-10-10-12\-------3-3-3-3-5-5-5-5-3h5-5/7-10-12-(12)-----
A|----12-----------------------------------------------------------------------------------
E|--------------------------------------------(3)-5----------------------------------------

e|------------------------------------------------------------------------------------------------
B|-----p------------------------------------------------------------------------------------------
G|-14h5\12-12-10-12-9h10-------------------12h14p12p10-10------------------~------h--------------
D|-----------------------12h14-12p10-12-------------------14-12h14b(14)-12p11-12-12/14-12-12-11-11
A|------------------------------------------------------------------------------------------------
E|--------------------------------------11--------------------------------------------------------

Verse: D Bb D F C D Bb D F Bb Eb G5 Bb5 A5 G5 Bb5 A5 D F Bb5 D F Bb Eb D F
Bb Eb D F Bb Eb
Solo: GTR SOLO 1
e|------------------~~-----------------------------------------------|
B|-10--12(12)b-(12)-10-10h11p10--------------------------------------|
G|------------------------------12b(12)-9-12-9h10------p-p-p---------|
D|------------------------------------------------12-12\5\3\2-0-0-0--|
A|-------------------------------------------------------------------|
E|------------------------------------------------------------------X|Pick
Slide

Chorus: A5 Dm A5 Dm A5 Dm A5 D C#
Verse: Same as verse above
Solo 2
e|-13b(13)-10h13p10----10----------------------------------------------------------------------
B|------------------13----13b-13b-13-10----------------------------------------------~--~~~----
G|--------------------------------------12b(12)p10----10-------------------10----10-12b-12b(12)
D|-------------------------------------------------12----12-------10h11h12----12---------------
A|----------------------------------------------------------10h12------------------------------
E|---------------------------------------------------------------------------------------------

e|-10--------10-----------------------------------------------
B|------------------------------------semi PH+++++++++++++++++
G|----12b(12)---12(12)b(12)-12b(12)-12(12)-x-12-12-12-12-12-12
D|------------------------------------------------------------
A|------------------------------------------------------------
E|------------------------------------------------------------

Chorus Into Solo 3 
e|-------------------------------------------------------------------------------------------h-~
B|-PH++++++++++++------------------------------------------------------------h---13----13(13)/15
G|-12-12-12-12-12-10-12-10h12p10----10----10-12p10-10-12p10-10-12p10-10-10-12/14----14----------
D|-------------------------------12----12-------------------------------------------------------
A|----------------------------------------------------------------------------------------------
E|----------------------------------------------------------------------------------------------

e|--~~~-15-13-12p13-12-13----12-------~~-----------------------------------10--------------------
B|-(15)-------------------15----13h15-13-------------------------~~-----------13-10--------------
G|---------------------------------------12-10-------------------10-12-12b----------12-10h---10--
D|---------------------------------------------12-10-------10-12--------------------------12---12
A|---------------------------------------------------10h12---------------------------------------
E|-----------------------------------------------------------------------------------------------

e|---------------------------------------------------------------------------------------------
B|---------------------------------------------------------------------------------------------
G|----------------------------------------------10-10----10-10b----10b-10b----10b---10-10----10
D|-10h12p10----10---------------------h---10----------12-10-----12---------12----12-------12---
A|----------12----12--------------8-10/12----12------------------------------------------------
E|-------------------13-10-10b(10)-------------------------------------------------------------

e|---------------------------|
B|-------------10------10h12-|
G|-10----10----10------------|
D|----12----12----(12)-------|
A|---------------------------|
E|---------------------------|

Verse:Solo
e|------~~~-----10-----------------------------------------------------------------------
B|-12b-(12)-----------------~~~~~---------------------------6----------------------------
G|-12b-(12)-12b-------10-10-12-12------------------h--5-7-7---7-5------p-----------------
D|-----------------12-------------10-10-------3-5-5/7-------------7-6p5\5-5b-5-3--h------
A|--------------------------------------0-3h5------------------------------------(3 5)3-~
E|--------------------------------------------------------------------------------------3

e|-------------------------------------------------------------------------------------------
B|-------------------------------------------------------------------------------------------
G|-------------------------------------------------------------------------------------------
D|-------------------------------------------------------------------------------------------
A|--~~---------------------------------------------------------------------------------------
E|-(3)-xpS-xpS-xpS-xpS-xpS-xpS-x-x-x-x-x-x-x-x-x-x-x-x-x-x-x-x-x-x-x-x-x-x-x-x-x-x-x-x-x-psPS

Outro Solo:
e|-----------7-------------------------5-----------------------------------|
B|-7---7-------6---------------------6---------------------5---------------|
G|-7------p------7-----------------------5---------------5---7b(7)(7)-7b(7)|
D|-7-7---7/5-------0-0-0-0-0-0-0-0-0-------7-7p5---------------------------|
A|-5---------------------------------------------5-6-7-8-------------------|
E|-------------------------------------------------------------------------|

e|---------------------------------------~~~~~----------------------------|
B|-~-7--------------------~----~~~~~~h~~-12-15-17------------------17-----|
G|-7-7b-7b-7-7b-7-7b(7)b-7b-7b-11(11)/13----------17-17b-17-17b-17-17b(17)|
D|------------------------------------------------------------------------|
A|------------------------------------------------------------------------|
E|------------------------------------------------------------------------|

e|---------------------------------------------------18-18----------------|
B|-~~--------------------17-----------------------16-------15----16-------|
G|-15-17b-17b-17b(17)-17----17p16-~~-0----0----15-------------15----------|
D|--------------------------------17---17--(0)----------------------------|
A|------------------------------------------------------------------14----|
E|---------------------------------------------------------------------15-|
  W/ octaver
e|-16--------------------------------------------------|
B|-----------------------------------------------------|
G|----15------------------9-9-----------7--------------|
D|-------0-----~--------7-----10p7--------7-4---4b(4)b-|
A|---------7h9-7-9-7b-9------------7-5b-------5--------|
E|-----------------------------------------------------|

Send comments to me here if you
have any questions, comments or corrections.





Comments


Popular Sublime tabs & chords
Waiting For My Ruca Bass Tabs
What Happened? 1 Bass Tabs
Saw Red 1 Chords
Garden Grove Drum Tabs
Crazy Fool Tabs
Get Ready Tabs
Greatest Hits Tabs
Roots Of Creation Tabs
Date Rape Ukulele
Freeway Time In La County Jail Ukulele


Song lyrics



↑ Back to top | Tablatures and chords are parodies/interpretations of the original songs. You may use it for private study, scholarship, research or language learning purposes only
© 2014 AZChords.com Contact us | Privacy policy | DMCA | Add/correct tabs | Request tabs | Top 50 tabs