» » »

Sublime, Burritos Tabs (ver.1)

Artists:  A B C D E F G H I J K L M N O P Q R S T U V W X Y Z # 

Burritos Tabs (ver.1)

Sublime Tabs
 Rating:
4.6/5 (10 votes)
Burritos lessons Tabs too difficult? Try these video lessons and learn fast
                Tuning:Standard
This is mainly the riff for now!

Intro: 
e|----------------------------------------------------------------------------------|
B|---------------------------------------------------6------------------------------|
G|--------------h--5-7------------------------h--5-7---7p5-------5--p---------------|
D|-------3-5-3-5/7---------3-5-3(3)----3-5-3-5/7-----------5-5h7---5/3-----3---3-5/-|
A|-3h5-5---------------3-5----------5\---------------------------------3h5---5------|
E|----------------------------------------------------------------------------------|

e|------------------------------------10--|
B|------------------------------p--h------|
G|-5-7---------5-7-7-7p5---5---5\2/11-----|
D|-----5h7-7-7-----------7---7------------|
A|----------------------------------------|
E|----------------------------------------|

E|--------------------------------------------------|
B|13-10---------------------------------------------|
G|-------12b(12)p10---------------------------------|
D|------------------12-10h12-------10---------------|
A|---------------------------10h12---10\8---10/12---|
E|----------------------------------------10-8h10-8-|

e|--------------------------------------------|
B|----------------~~--------------------------|
G|-10----10-10-10-12-(12)\--------------------|
D|-10----------------------/17-0-10-10-10-12\-|
A|----12--------------------------------------|
E|--------------------------------------------|

E|----------------------------------------------|
B|----------------------------------------------|
G|----------------------------------------15-14-|
D|------3-3-3-3-5-5-5-5-3h5-5/7-10-12-(12)------|
A|----------------------------------------------|
E|(3)-5-----------------------------------------|

E|---------------------------------------|
B|---------------------------------------|
G|-14h5\12-12-10-12-9h10-----------------|
D|-----------------------12h14-12p10-12--|
A|---------------------------------------|
E|---------------------------------------|

E|------------------------------------------------------------|
B|------------------------------------------------------------|
G|---12h14p12p10-10-------------------------------------------|
D|---------------14-12h14b(14)-12p11~-12-12/14-12-12-11-11----|
A|------------------------------------------------------------|
E|11----------------------------------------------------------|

Verse 1 Riff:
e|------------------~~-----------------------------------------------|
B|-10--12(12)b-(12)-10-10h11p10--------------------------------------|
G|------------------------------12b(12)-9-12-9h10------p-p-p---------|
D|------------------------------------------------12-12\5\3\2-0-0-0--|
A|-------------------------------------------------------------------|
E|----------------------------------------------XXXXXXXXPick SlideXXX|

Verse 2 Riff:
e|-13b(13)-10h13p10----10--------------------------|
B|------------------13----13b-13b-13-10------------|
G|--------------------------------------12b(12)p10-|
D|-------------------------------------------------|
A|-------------------------------------------------|
E|-------------------------------------------------|
            
Submit corrections

comments powered by Disqus
↑ Back to top | Sublime Tabs for Burritos. Lyrics for acoustic guitar and electric guitar. Tablatures and chords are parodies/interpretations of the original songs. You may use it for private study, scholarship, research or language learning purposes only