» » »

All You Need Bass tabs (ver.2)

Artists:  A B C D E F G H I J K L M N O P Q R S T U V W X Y Z # 

All You Need Bass tabs (ver.2)

Sublime
Rating:
0/5 (0 votes)

Hard to play? Try these video lessons and learn fast.
                |-9-7-5--|
|-7-----5|
|--------|
|--------|


Part 1: Play 3x
|------------------------------|	then...		|---------------------|
|-----------------------33-2h3-|			|-7-5-----------------|
|---------3-2h3--55-4h5--------| 			|-----7-6-5-3-0h3h5-5-|
|-55-4h5-----------------------|			|---------------------|


Part 2: Play 8x
|------------------------------|
|-----------------------33-2h3-|
|---------3-2h3--55-4h5--------|
|-55-4h5-----------------------|


Part 3:
|----------------------------------------------------------------------------------|
|----------------------------------------------------------------------------------|
|--------------2h4-2h4----------------------------------------2h4-2h4--------------|
|-222222222222---------222222-0h1h2-222222-0h1h2-222222222222---------222222222222-|


|-------------------------------------------------------------------------|
|----------------------------6-6h7p6--------------------------------------|
|-------------4-5-7777777777--7-----7-5-444444444444-0h2h4-44444444-2-----|
|-/5555555555---------------------------------------------------------5-4-|


|---------------------------------------------|
|---------------------------------------------|
|-------------------5p4-5p4-5p4-5p4-7---------|
|-55555555-77777777-------------------0-0-0-0-|


|--------------------------------------|
|-----------2h4-4-4-4------------------|
|-------4-4-----------2-2-2-44444444-4-|
|-2-2-2--------------------------------|


Part 4: Play 3x
|-----------------------------|	then...	|---------------------|
|-----------------------33-2h3|		|-7-5-----------------|
|---------3-2h3--55-4h5-------| 	|-----7-6-5-3-0h3h5-5-|
|-55-4h5----------------------|		|---------------------|


Part 5: Play 8x
|----------------------------|
|----------------------33-2h3|
|--------3-2h3--55-4h5-------|
|-55-4h5---------------------|


Part 6:
|------------------------------------------------------|
|------------------------------------------------------|
|------------------------------------------------------|
|-222222222222--222222222222-222222222222-222222222222-|


|---------------------------------------------------|
|---------------------------------------------------|
|--------------------------444444444-0h3h4-44444444-|
|-/5555555555-4-3-00000000--------------------------|


|---------------------------------------------|
|---------------------------------------------|
|-------------------5p4-5p4-5p4-5p4-7---------|
|-55555555-77777777-------------------0-0-0-0-|


|--------------------------------------|
|-----------2h4-4-4-4------------------|
|-------4-4-----------2-2-2-44-------4-|
|-2-2-2--------------------------------|


Part 7: Play 2x
|----------------------------|		|----5---55---5-----------------|
|----------------------33-2h3|		|-77---7----7------3---33---3---|
|--------3-2h3--55-4h5-------| 		|---------------55---5----5-----|
|-55-4h5---------------------|		|-------------------------------|

|---------------------|
|-7-5-----------------|
|-----7-6-5-3-0h3h5-5-|
|---------------------|


Part 8: worship satan like me and you'll learn this....
|-----------------------------------------------------------|
|---------------------------------------------------2-3-4-5-|
|---------0-1-3---------0-1-3---------0-1-3---3-4-5---------|
|-333-0-3-------333-0-3-------333-0-3-------3---------------|


Play 3x... i improv this entire line cause satan told me too!
|----------------------|
|--------5-------------|
|-777-77---7-5-----5h7-|
|--------------7-0-----|


|----------------------------------------------------------444-666-777-999-|
|------------------------------------------333-555-666-777-----------------|
|-777-----5-7777-----5-7777-----5-77777777---------------------------------|
|-----5h7--------5h7--------5h7--------------------------------------------|


Part 4: Play 9x
|-----------------------------|	then...	|-----------------------|
|-----------------------33-2h3|		|-7-5-------------------|
|---------3-2h3--55-4h5-------| 	|-----7-6-5-3-0h3h5-5---|
|-55-4h5----------------------|		|---------------------5-|
            
Hard to play? Try these video lessons and learn fast. | Correct




comments powered by Disqus
↑ Back to top | Tablatures and chords are parodies/interpretations of the original songs. You may use it for private study, scholarship, research or language learning purposes only