» » »

Sublime, All You Need Bass tabs (ver.1)

Artists:  A B C D E F G H I J K L M N O P Q R S T U V W X Y Z # 

All You Need Bass tabs (ver.1)

Sublime Tabs
 Rating:
3.4/5 (5 votes)
All You Need lessons Tabs too difficult? Try these video lessons and learn fast
                Band: Sublime
Bassist: Eric Wilson
*******PLEASE FEEL FREE TO E-MAIL ME(^^^^^^) AND ASK IF YOU REPOST THIS IF YOU HAVE
FIGURED SOMETHING OUT AND REPOST IT AS ALL YOU NEED VERSION 2*****

Hey guys, this is my first tab, so bare with me.
I cant figure out that first bass slide. just play with it a lil'.


G------------------------------------------|
D------------------------------------------|
A--------------5555--8888------------------|
E---5555--8888-------------5555--8888------|


G----------------------------------------|
D----------------------------------------|
A--5555--8888-------------5555--8888-----|
E--------------5555--8888----------------|

Break(or whatever its called)

G------------------------------------------|
D---7-5------------------------------------|
A--------7-6-5-----------------------------|
E----------------8-7-5-------|

TheN: Verse 1(repeat until "passed out on the pavement, I wont feel afraid"
G------------------------------------------|
D------------------------------------------|
A--------------5555--8888------------------|
E---5555--8888-------------5555--8888------|


G----------------------------------------|
D----------------------------------------|
A--5555--8888-------------5555--8888-----|
E--------------5555--8888----------------|


Now mess around with it a few time to match up with the guitar part.

G--------------------------------------|
D--------------------------------------|
A--------------------------------------|
E---2222222222222222222222222----------|
(there are twenty-five 2's. you can either double if your playing with your fingers or if you're
playing with a pick play^)

Chorus: not the right amount of numbers... play until you hear chord changes.
G----------------------------------------|
D----------------------------------------|
A--000000000-77777777777-44444444--------|
E----------------------------------------|

G-----------------------------------------|
D-----------------------------------------|
A---0000000--2222222--5555555--7777777----|
E-----------------------------------------|

I believe its...
G----------------------------------------|
D----------------------------------------|
A---000000000000-------------------------|
E----------------------------------------|

Then at the " THATS ALL YOU NEED"
Verse 2
G------------------------------------------|
D------------------------------------------|
A--------------5555--8888------------------|
E---5555--8888-------------5555--8888------|


G----------------------------------------|
D----------------------------------------|
A--5555--8888-------------5555--8888-----|
E--------------5555--8888----------------|


G------------------------------------------|
D---7-5------------------------------------|
A--------7-6-5-----------------------------|
E----------------8-7-5---------------------|NOT TOO SURE STILL>

G------------------------------------------|
D------------------------------------------|
A--------------5555--8888------------------|
E---5555--8888-------------5555--8888------|


G----------------------------------------|
D----------------------------------------|
A--5555--8888-------------5555--8888-----|
E--------------5555--8888----------------|


G------------------------------------------|
D------------------------------------------|
A--------------5555--8888------------------|
E---5555--8888-------------5555--8888------|


G----------------------------------------|
D----------------------------------------|
A--5555--8888-------------5555--8888-----|
E--------------5555--8888----------------|


Again
G--------------------------------------|
D--------------------------------------|
A--------------------------------------|
E---2222222222222222222222222----------|
(there are twenty-five 2's. you can either double if your playing with your fingers or if you're
playing with a pick play^)


Chorus: not the right amount of numbers... play until you hear chord changes.
G----------------------------------------|
D----------------------------------------|
A--000000000-77777777777-44444444--------|
E----------------------------------------|

G-----------------------------------------|
D-----------------------------------------|
A---0000000--2222222--5555555--7777777----|
E-----------------------------------------|

I believe its...
G----------------------------------------|
D----------------------------------------|
A---000000000000-------------------------|
E----------------------------------------|


Then Brad's AMAZING voice solo.

G------------------------------------------|
D------------------------------------------|
A--------------5555--8888------------------|
E---5555--8888-------------5555--8888------|


G----------------------------------------|
D----------------------------------------|
A--5555--8888-------------5555--8888-----|
E--------------5555--8888----------------|


G------------------------------------------|
D---7-5------------------------------------|
A--------7-6-5-----------------------------|
E----------------8-7-5---------------------|NOT TOO SURE STILL>

Im so sorry guys. I cant figure out the Bass part to the guitar solo.
****PLEASE FEEL FREE TO MESSAGE ME AND ASK IF YOU FIGURED SOMETHING OUT AND REPOST IT
AS ALL YOU NEED VERSION 2*****
            
Submit corrections

comments powered by Disqus
↑ Back to top | Sublime Bass for All You Need. Lyrics for acoustic guitar and electric guitar. Tablatures and chords are parodies/interpretations of the original songs. You may use it for private study, scholarship, research or language learning purposes only