>
 >
40 Oz. To Freedom 2

40 Oz. To Freedom 2 Guitar Tabs

Sublime - 40 Oz. To Freedom 2 chords, tabs, tablatures, lyrics

Guitar lessons | Add/correct | Request | Top 50 tabs Artists:  A B C D E F G H I J K L M N O P Q R S T U V W X Y Z 0-9

40 Oz. To Freedom 2 Guitar Tabs – Sublime

CD, Sheet music, Poster

Do you like 40 Oz. To Freedom 2? Share with your friends now
Bass TabsChordsChords v2Chords v3TabsTabs v2Tabs v3
SUBLIME - 40OZ. TO FREEDOM
40OZ. TO FREEDOM

 h Hammer On/Pull Off
 b Bend half step
 B Bend full step
 ~ Hold
 x Mute
 + Rest
 / Slides

INTRO
E|-3x--3x--3x--3--3x--3x--5x--5x----|
B|-3x--3x--3x--3--5x--5x--7x--7x----|
G|-4x--4x--4x--435x--5x--7x--7x-----|
D|----------------------------------|
A|----------------------------------|
E|----------------------------------|

E|-3x--3x--3x--3--3x--3--/5---5---|
B|-3x--3x--3x--3-/5x--5--/7---7---|
G|-4x--4x--4x--3-/5x--5--/7---7---|
D|--------------------------------|
A|--------------------------------|
E|--------------------------------|

VERSE 1
E|--+-------------------------------|
B|--+-------------------------------|
G|--+-------------------------------|
D|--+------------------------85-----|
A|--+--2-----5-2---33332h3666--6----|
E|-3+----0-33----3------------------|

E|--+---+-------------------------|
B|--+---+-------------------------|
G|--+---+-------------------------|
D|--+---+-------------------------|
A|-5+--5+-2h5-5-5-5-5~5-----------|
E|--+---+---------------6-6-6-6-5-|

E|--+-------------------------------|
B|--+-------------------------------|
G|--+-------------------------------|
D|--+------------------------88-----|
A|--+--2-5--2-5-2-33332h365h6--6----|
E|-3+-------------------------------|

E|--+---+---+-----------------------|
B|--+---+---+-----------------------|
G|--+---+---+--------------4h5p42---|
D|--+---+---+-----------------------|
A|--+--2+--5+-----2-33-3--5~--------|
E|-3+---+---+---3-------------------|

VERSE 2
E|--+-----------------------------|
B|--+-----------------------------|
G|--+-----------------------------|
D|--+-----------------------------|
A|--+-----------------------------|
E|-3+-----------------------------|

HOLD REST THROUGH 2 MORE MEASURES

E|----------------------------------|
B|----------------------------------|
G|-------------------------4h5p42---|
D|----------------------------------|
A|----------------------------------|
E|----------------------------------|

CHORUS
E|----------------------------|X4
B|----------------------------|
G|-------4444~7~~7~-----------|
D|-5~~5~~5555~8~~8~83-3-3/5|--|
A|-5~~5~~5555~8~~8~83-3-3/5|--|
E|-3~~3~~3333~6~~6~61-1-1/3|--|

BRIDGE
 -REPEAT VERSE 1, continue VERSE 2 with last note

VERSE 2
E|--------------------------------|
B|--------------------------------|
G|-4h5p4h54h5p4h54h5p4h54h5p4h54h5|
D|--------------------------------|
A|--------------------------------|
E|--------------------------------|

E|--------------------------------|
B|--------------------------------|
G|4h5p4h5p4~----------------------|
D|-----------2/-------------5-8--5|
A|----------3---3---3---3-6-------|
E|--------------------------------|

E|--------+-----------------------|
B|--------+-----------------------|
G|--------+-----------------------|
D|----2---+--------1-111-1-03-33/5|
A|-/33-/35+-----------------------|
E|--------+x-x--x-3---------------|

E|--------------------------------|
B|--------------------------------|
G|--------------------------------|
D|----------------------------5---|
A|---5---2---3-3-3-5--6-6-6-6---6-|
E|-3---3---3----------------------|

E|--+---+---+-----------------------|
B|--+---+---+-----------------------|
G|--+---+---+--------------4h5p42---|
D|--+---+---+-----------------------|
A|--+--2+--5+----2/33363-5~---------|
E|-3+---+---+---3-------------------|

CHORUS
E|----------------------------|X4
B|----------------------------|
G|-------4444~7~~7~-----------|
D|-5~~5~~5555~8~~8~83-3-3/5|--|
A|-5~~5~~5555~8~~8~83-3-3/5|--|
E|-3~~3~~3333~6~~6~61-1-1/3|--|

BRIDGE
 -GUITAR DUET (SOLO w/ two guitar recordings) hard to distinguish
one from the other, but I checked this thoroughly.
GUITAR 1
E|--7h8-10~--7h87---7h87----------|----7-8-10~---12-13-12-10---------|
B|-8--------8----8~8----8~-6-5----|-/8-----------------------1312----|
G|-----------------------------7-5|----------------------------------|
D|--------------------------------|----------------------------------|
A|--------------------------------|----------------------------------|
E|--------------------------------|----------------------------------|

GUITAR 2
E|--------------------------------|---------12-13--15--------------|
B|--------------------------------|--1312-15-----15--15-13-1512--12|
G|---------------1097-------------|12--------------------------12--|
D|-------------------10-9---------|--------------------------------|
A|-----------------------810-10-10|--------------------------------|
E|--------------------------------|--------------------------------|

GUITAR 1
E|-----7h8-7----------------------|---------7-8-7------------------|
B|---8-------8----6h5-------------|-------8-------8----------------|
G|--------------------7--5b-------|-5/7----------------------7-----|
D|--------------------------------|--------------------------------|
A|--------------------------------|--------------------------------|
E|--------------------------------|--------------------------------|

GUITAR 2
E|--------------------------------|------12-------15----12--12-------|
B|-12---------------------------12|13--15--13---15--15--------12-x---|
G|---10-10-10-9--9-10-12b12B/12--|--12---------------12--------------|
D|-------------12-----------------|----------------------------------|
A|--------------------------------|----------------------------------|
E|--------------------------------|----------------------------------|

GUITAR 1
E|--------------------------------|--------------------------------|
B|---5h6p5h6p5h6-5h6p5h6---6--5-3-|--3-------3/12-------13---------|
G|--------------------------------|----------------------------12--|
D|--------------------------------|--------------------------------|
A|--------------------------------|--------------------------------|
E|--------------------------------|--------------------------------|

GUITAR 2
E|---12-1313--12----15-131312--12|13-15-121315-121315-15-121315-12---|
B|15x-------15--1315----------15--|----------------------------------|
G|--------------------------------|----------------------------------|
D|--------------------------------|----------------------------------|
A|--------------------------------|----------------------------------|
E|--------------------------------|----------------------------------|

GUITAR 1
E|----------------------------------|
B|-12-13-12b~~~~~~------------------|
G|----------------1210-10------10---|
D|----------------------------------|
A|----------------------------------|
E|----------------------------------|

GUITAR 2
E|-13--12b---13-------------------|
B|-------------13-12----12--------|
G|-------------------12----12--12-|
D|--------------------------------|
A|--------------------------------|
E|--------------------------------|

OUTRO/CHORUS
E|----------------------------|X3
B|----------------------------|
G|-------4444~7~~7~-----------|
D|-5~~5~~5555~8~~8~83-3-3/5|--|
A|-5~~5~~5555~8~~8~83-3-3/5|--|
E|-3~~3~~3333~6~~6~61-1-1/3|--|

E|--------------------------|
B|----------------5~~-------|
G|-------4444~2~~-5~~-4~~~~~|
D|-5~~5~~5555~3~~-5~~-5~~~~~|
A|-5~~5~~5555~3~~-3~~-5~~~~~|
E|-3~~3~~3333~1~~-----3~~~~~|





Comments


Popular Sublime tabs & chords
Ballad Of Johnny Butt Bass Tabs
Falling Idols Bass Tabs
Lets Go Get Stoned 2 Bass Tabs
Caress Me Down Chords
Drunk Driving Chords
Farther I Go Chords
Marley Medley Chords
Bad Fish 1 Tabs
Freeway Time In La County Jail Tabs
I Saw Red Ukulele


Song lyrics



↑ Back to top | Tablatures and chords are parodies/interpretations of the original songs. You may use it for private study, scholarship, research or language learning purposes only
© 2014 AZChords.com Contact us | Privacy policy | DMCA | Add/correct tabs | Request tabs | Top 50 tabs