» » »

40 Oz To Freedom Chords (ver.3)

Artists:  A B C D E F G H I J K L M N O P Q R S T U V W X Y Z # 

40 Oz To Freedom Chords (ver.3)

Sublime
Rating:
0/5 (0 votes)

Hard to play? Try these video lessons and learn fast.
                Album:40 OZ To Freedom

Standard Tuning: E,A,D,G,B,E

Chords used in the song. I try to make it straight forward with the chords and lyrics. 
song.

Chords:
Intro, Verse 1 & 2

   A     D      E      F
e--5-----x------x------x-----------|
b--5-----7------9------10----------|
g--6-----7------9------10----------|
d--7-----7------9------10----------|
a--7-----5------7------8-----------|
e--5-----x------x------x-----------|

Chorus
   A      C       G
e--5------x-------3---------------|
b--5------5-------3---------------|
g--6------5-------4---------------|
d--7------5-------5---------------|
a--7------3-------5---------------|
e--5------x-------3---------------|


Verse 1
You've got your hair permed
You've got your red dress on
Screamin' that second gear was such a turn on
And the fog forming on my window tells me that the morning here
And you'll be gone before too long
Who taught you those new tricks?
Damn I shouldn't start that talk,
but life is one big question when your starin at the clock
And the answers always waiting at the liquor store, 40 oz to Freedom,
so I'll take that walk.

Chorus
And I know that ohhhh...I'm not comin back
Ohh not going back
God knows not going back

Verse 2
You look so fine when you lie it just don't show,
That I know which way the wind blows
40 oz to freedom is the only chance I have to feel good,
even though I feel bad

Chorus
And I know that ohhhh...I'm not comin back
Ohh not going back
God knows I'm not going back
God knows I'm not going back
            
Hard to play? Try these video lessons and learn fast. | Correct




comments powered by Disqus
↑ Back to top | Tablatures and chords are parodies/interpretations of the original songs. You may use it for private study, scholarship, research or language learning purposes only