>
 >
Soldiers Under Command

Soldiers Under Command Guitar Tabs

Stryper - Soldiers Under Command chords, tabs, tablatures, lyrics

Guitar lessons | Add/correct | Request | Top 50 tabs Artists:  A B C D E F G H I J K L M N O P Q R S T U V W X Y Z 0-9

Soldiers Under Command Guitar Tabs – Stryper

CD, Sheet music, Poster

Do you like Soldiers Under Command? Share with your friends now
Tabs
-----------------------------------------------------------------------
-----------------------------------------------------------------------

Tuning:Standard
   Intro
e|--------------------------------------------------------------------|
B|--------------------------------------------------------------------|
G|*--12-11-9-7-9---------------9------------99------------------------|
D|*--12-11-9-7-9----9---10---9-9----5---4---99----2---0---2---5---2---|
A|---10--9-7-5-7--7---7----7---7--5---5---5-77--2---2---2---2---2---2-|
E|--------------------------------------------------------------------|
  
e|-------------------------------------------|
B|-------------------------------------------|
G|--------5--------------7--------------9-7-*|
D|--0---2-5----5---7---5-7----5---4---5-9-7-*|
A|----2---3--3---3---3---5--5---5---5---7-5--|
E|-------------------------------------------|
  
e|-------------------------------------------------------------|
B|-------------------------------------------------------------|
G|--12-11-9-7-99-----99-----99------12-11-9-7-55-----99----9-7-|
D|--12-11-9-7-99-----99-----99------12-11-9-7-55-----99----9-7-|
A|--10--9-7-5-77-----77-----77------10--9-7-5-33-----77----7-5-|
E|--------------00000--00000---00000------------00000--0000----|

e|----------------------------------------------------------------|
B|----------------------------------------------------------------|
G|--12-11-9-7-99-----99-----99------12-11-9-7-55-----99----9-7--5-|
D|--12-11-9-7-99-----99-----99------12-11-9-7-55-----99----9-7--5-|
A|--10--9-7-5-77-----77-----77------10--9-7-5-33-----77----7-5--3-|
E|--------------00000--00000---00000------------00000--0000-------|
   VERSE             p.h.                    p.h.
e|--------------------------------------------------|
B|--------------------------------------------------|
G|*--99-----99------0--7~5~-99-----99------0--5~7~-*|
D|*--99-----99------0--4~2~-99-----99------0--2~4~-*|
A|---77-----77--------------77-----77---------------|
E|-----00000--00000-3---------00000--00000-3--------|

e|-------------------------------|
B|-------------------------------|
G|--5/7------99------5/7------99-|
D|--5/7------99------5/7------99-|
A|--3/5------77------3/5------77-|
E|-------------00000-------------|
   CHORUS        p.m....
e|--------------------------------------------------|
B|--------------------------------------------------|
G|--9--------------------7--9--12--11-12---12-12-12-|
D|--9------12------------7--9--12--12-12---12-12-12-|
A|--7-------9----5-7-9-7-5--7--10--9--10---10-10-10-|
E|--------------------------------------------------|
  
e|------------------------------------------|
B|------------------------12----------7--9--|
G|--9------12-------------12--12--10--7--9--|
D|--9-------9----5-7-9-7--10---9---7--5--7--|
A|--7---------------------------------------|
E|------------------------------------------|
                   
e|------------------------------------------------------|
B|------------------------------------------------------|
G|--99-----99-----99------12-11-9-7-55-----55----9-7--5-|
D|--99-----99-----99------12-11-9-7-55-----55----9-7--5-|
A|--77-----77-----77------10--9-7-5-33-----77----7-5--3-|
E|----00000--00000---00000------------00000--0000-------|
  Play VERSE and Chorus again
  BRIDGE
e|----------------------------------------------|
B|----------------------------------------------|
G|------------------2-4-5~~~4-2-0---------------|
D|----------5-4~~~5---------------4-2-0-9-9-7~~~|
A|--7~~~--7-----------------------------7-7-5~~~|
E|------0-------------------------------0-------|


e|----------------------------------------------|
B|----------------------------------------------|
G|------------------2-4-5~~~4-2-0-------2~~~7-9-|
D|----------5-4~~~5---------------4-2-0-----7-9-|
A|--7~~~--7---------------------------------5-7-|
E|------0---------------------------------------|
  Solo Rythym 
e|----------------------------------------------------------------|
B|----------------------------------------------------------------|
G|----------------------------------------------------------------|
D|---------------------------------------5/7777-7777-7777-7\5---7-|
A|--7777-7777-7777-777-3333-3333-3333-33-3/5555-5555-5555-5\3p0-7-|
E|--5555-5555-5555-555-1111-1111-1111-11------------------------5-|

e|-----------------------------------------------------------|
B|-----------------------------------------------------------|
G|-----------------------------------------------------------|
D|--9999-9999-9999-999-5555-5555-5555-555-7777-777-555-777---|
A|--7777-7777-7777-777-3333-3333-3333-333-5555-555-333-555-9-|
E|---------------------------------------------------------7-|

e|-------------------------------------------------------------|
B|-------------------------------------------------------------|
G|-------------------------------------------------------------|
D|--10p9-9p7-----------5555-5555-5555-555-7777-7777-5555-777---|
A|-----------10p9-5/7~~3333-3333-3333-333-5555-5555-3333-555-9-|
E|-----------------------------------------------------------7-|
  Play intro riff 1 time and then play chorus
 Ending
e|----------------------------------------------------|
B|----------------------------------------------------|Play 
G|--99-----99-----99------12-11-9-7-55-----99----9-7--|2x's
D|--99-----99-----99------12-11-9-7-55-----99----9-7--|
A|--77-----77-----77------10--9-7-5-33-----77----7-5--|
E|--00000--00000---00000------------00000--0000-------|

e|--------------------------|
B|--------------------------|
G|--22---5--7--5--4------9--|
D|--22---5--7--5--4------9--|
A|--00---7--5--3--2------7--|
E|-----------------------0--|


| /  slide up
| \  slide down
| h  hammer-on
| p  pull-off
| ~  vibrato
| +  harmonic
| x  Mute note
===============================================================================





Comments


Popular Stryper tabs & chords
Winter Wonderland 2 Bass Tabs
Believe Chords
Wait For You Chords
4 Leaf Clover 1 Tabs
4 Leaf Clover 3 Tabs
Make You Mine Tabs
Reborn Tabs
Rockin' The World Tabs
Shining Star Tabs
Wait For You Tabs


Song lyrics



↑ Back to top | Tablatures and chords are parodies/interpretations of the original songs. You may use it for private study, scholarship, research or language learning purposes only
© 2014 AZChords.com Contact us | Privacy policy | DMCA | Add/correct tabs | Request tabs | Top 50 tabs