» » »

Stryper, More Than A Man Tabs (ver.1)

Artists:  A B C D E F G H I J K L M N O P Q R S T U V W X Y Z # 

More Than A Man Tabs (ver.1)

Stryper Tabs
Rating:
4/5 (2 votes)
More Than A Man lessons Tabs too difficult? Try these video lessons and learn fast
                  Band:Stryper
  CD:To Hell With The Devil
  Copyright:c1986 Hollywood Records
  ******

    INTRO:
  e-------------------------------------5-8p5------------------|
  B------------------------------------------8--8p5------------|
  G---------------------7--------------------------7--7p5-a.h.-|
  D--9-9-9-9--------------9--7-7-7-7----------------------7----|
  A--7-7-7-7----7-7-7-9------5-5-5-5---------------------------|
  E------------9-------9---------------------------------------|

  e-------------------------------------------------------|
  B-------------------------------------------------------|
  G---------------------7---------------------4----2------|
  D--9-9-9-9-------------9--7--11-9--6--7--6--4----2----2-|
  A--7-7-7-7----7-7-7-9-----5--9--7--4--5--4--2----0----2-|
  E------------9-------9--------------------------------0-|

  e-----------------------------------------------------|
  B-----------------------------------------------------|
  G-----------------------------------------------------|
  D-----------------------------------------------------|
  A--4----4---4---4---4----4---4---4---4----4---4---4---|
  E--2-00-2-0-2-0-2-0-2-00-2-0-2-0-2-0-2-00-2-0-2-0-2-0-|

   +On the recording gtrs.split the chord by playing one note each.
  e------------------------------------------------|play this 2x's
  B------------------------------------------------|the 2nd time
  G------------------------------------------------|gtr.1 plays
  D-+11-\7-9-\6-7-\4-7-chords alone  D--6--7--9----|end the 2nd time
  A-+-9-\5-7-\4-5-\2-5-while gtr.2   A--4--5--7----|like this.
  E--------------------plays fill    E-------------|




    VERSE:
                             Long ago...
  e--------------------------------------------------|
  B--------------------------------------------------|
  G--------------------------------------------------|
  D--------------------------------------4-4-4-4-4-4-|
  A--4-4-4-4-4-4-4-4-4-4-4-4-4-4-4-4-4-4-2x2x2x2x2x2-|
  E--2x2x2x2x2x2x2x2x2x2x2x2x2x2x2x2x2x2-------------|


                                You,you say.........
  e-----------------------------------------------------|
  B-----------------------------------------------------|
  G-----------------------------------------------------|
  D--9-9-9-9-9-9--6~~~----------------------4-4-4-4-4-4-|
  A--7x7x7x7x7x7--4~~~7~~~2-2-2-4-4-4-4-4-4-2x2x2x2x2x2-|
  E-------------------5~~~0-0-0-2x2x2x2x2x2-------------|

  e-----------------|
  B-----------------|end verse
  G-----------------|
  D--9~~~9--6--7--9-|
  A--7~~~7--4--5--7-|
  E-----------------|

   CHORUS:
   play 4x's-------------------------------------------|
  e---------------|-------|----------------------------|
  B---------------|-------|----------------------------|
  G---------------|-------|----------------------------|
  D--11---7--9--6-|--7--9-|----------------------------|
  A---9---5--7--4-|--5--7-|-4-4-4-4-4-4-4-4-4--7-222---|
  E---------------|-------|-2x2x2x2x2x2x2x2x2xx5-000---|

  From here play verse & chorus then play bridge.
   BRIDGE:
  e-----------------------|play 4x's
  B-----------------------|
  G-----------------------|
  D-11-11--9-11-11--9-7-9-|
  A--9--9--7--9--9--7-5-7-|
  E-----------------------|
   -For the solo rythym plays verse rythym-
   -Then play chorus-
   -Play intro for the ending-


  Any Q's or com's email Ed at
            

comments powered by Disqus
↑ Back to top | Stryper Tabs for More Than A Man. Lyrics for acoustic guitar and electric guitar. Tablatures and chords are parodies/interpretations of the original songs. You may use it for private study, scholarship, research or language learning purposes only