» » »

Strawberry Alarm Clock, Incense And Peppermints Bass tabs (ver.2)

Artists:  A B C D E F G H I J K L M N O P Q R S T U V W X Y Z # 

Incense And Peppermints Bass tabs (ver.2)

Strawberry Alarm Clock Tabs
 Rating:
4/5 (4 votes)
Incense And Peppermints lessons Tabs too difficult? Try these video lessons and learn fast
                Strawberry Alarm Clock
Incense and Peppermints

Standard Tuning

INTRO

---------------------------------------------------------------------------|
--2---2-2---2-2---2-2---0-1-2---2-2---2-2---2-2---0-1-0---0-0---0-0---0-1--|
----------------------2-------------------------0-------------------2------|
---------------------------------------------------------------------------|

  Bah,  bah...
----0-4-2-------0-4-5-------0-4-2-------0-4-5--|
--2-----------2-----------2-----------2--------|
------------2-----------2-----------2----------|
-----------------------------------------------|


VERSE I

Repeat the first riff several times

    Incense...
------0-4-2-------0-4-5--|
----2-----------2--------|
--2-----------2----------|
-------------------------|

    Who cares...
----4--4-3--3--3----------------4--4-3--3--3---------------|
--2--------------0-1-2--------2--------------0-1-2---------|
-----------------------0--0-0----------------------0--0-0--|
-----------------------------------------------------------|

    Incense...
------0-4-2-------0-4-5--|
----2-----------2--------|
--2-----------2----------|
-------------------------|

  Look at yourself...
------2-0---0-0-------2-0---0-0-0----------------------|
--0-4-------------0-4-------------4--4-3--3-2--2-1--1--|
----------------2--------------------------------------|
-------------------------------------------------------|

  Look at yourself...
------2-0---0-0-------2-0---0-0-0-----------2--2------------0--2--4--|
--0-4-------------0-4-------------4--4-3--3------0--1--2-------------|
----------------2----------------------------------------0-----------|
---------------------------------------------------------------------|


VERSE II

Repeat the first riff several times

    To divide...
------0-4-2-------0-4-5--|
----2-----------2--------|
--2-----------2----------|
-------------------------|

    Who cares...
----4--4-3--3--3----------------4--4-3--3--3---------------|
--2--------------0-1-2--------2--------------0-1-2---------|
-----------------------0--0-0----------------------0--0-0--|
-----------------------------------------------------------|


SOLO

------2-0---0-0-------2-0---0-0-0----------------------|
--0-4-------------0-4-------------4--4-3--3-2--2-1--1--|
----------------2--------------------------------------|
-------------------------------------------------------|

------2-0---0-0-------2-0---0-0-0-----------2--2------------|
--0-4-------------0-4-------------4--4-3--3------0--1--2----|
----------------2----------------------------------------0--|
------------------------------------------------------------|


VERSE III

Repeat the first riff several times

    Good sense...
------0-4-2-------0-4-5--|
----2-----------2--------|
--2-----------2----------|
-------------------------|

    Who cares...
----4--4-3--3--3----------------4--4-3--3--3---------------|
--2--------------0-1-2--------2--------------0-1-2---------|
-----------------------0--0-0----------------------0--0-0--|
-----------------------------------------------------------|


OUTRO

-----------------------0-2---2-2--2-2-0--------------|
--2---2-2---2-2---2-2-------------------2-0-2-0---0--|
------------------------------------------------2----|
-----------------------------------------------------|

  Incense...
-----------------------------------------------|
--2---2-1---1-0---0-------2---2-1---1-0---0----|
--------------------0---0-------------------0--|
-----------------------------------------------|

-------------------------|
----2---2-1---1-0---0-2--|
--0----------------------|
-------------------------|

                   Sha la la...
----------------------------------------------------|
--2---2-2---2-2---2-2---2-2-4---4-4---4-4---4--4-4--|
----------------------------------------------------|
----------------------------------------------------|

---------------------------2---2-2---2-2---2-2---2-2--|
--6---6-6---6-6---6--6-4-6----------------------------|
------------------------------------------------------|
------------------------------------------------------|

                                                        (fade)
--4---4-4---4-4---4--4---------------------2--2h4-2--------|
-----------------------2-1-0---0-0---0--4-----------0-1-2--|
-----------------------------------------------------------|
-----------------------------------------------------------|
            
Submit corrections

comments powered by Disqus
↑ Back to top | Strawberry Alarm Clock Bass for Incense And Peppermints. Lyrics for acoustic guitar and electric guitar. Tablatures and chords are parodies/interpretations of the original songs. You may use it for private study, scholarship, research or language learning purposes only