» » »

Strawberry Alarm Clock, Incense And Peppermints Bass tabs (ver.1)

Artists:  A B C D E F G H I J K L M N O P Q R S T U V W X Y Z # 

Incense And Peppermints Bass tabs (ver.1)

Strawberry Alarm Clock Tabs
 Rating:
3.7/5 (6 votes)
Incense And Peppermints lessons Tabs too difficult? Try these video lessons and learn fast
                
standard tuning (EADG)

Intro (come in with the keyboard)
G--------------------------------------------------------|
D---2--2-2--2-2--2-2--2-2--2-2--2-2--2-2-0-0-0--0-0--0-0-|
A--------------------------------------------------------|
E--------------------------------------------------------|

Pre-verse
G----------4--4-4-------5--5-5]
D----2-2-2--------5-5-5-------]  2 times
A-----------------------------]
E-----------------------------]


verse
G---------4-4-4-4--------5-5-5-5]
D--2-2-2-2--------5-5-5-5-------]  4 times
A-------------------------------]
E-------------------------------]


chorus (play as the words are sung)
     who  cares what games we chose   little to win but nothing to lose
G---------------------------------------------------------------------|
D-----2---1-----------0----------------2---------1-------0------------|
A------------------------------0------------------------------------0-|
E---------------------------------------------------------------------|

Play verse twice

"Look at yourself..."
G---2-0--0-------2-0---0------6----------2-0--0------2-0---0-----6--6/9----9-|
D-------4------------4------4----------------4-----------4-----4-------------|
A----------------------------------------------------------------------------|
E----------------------------------------------------------------------------|


Transition back to verse
G------4-6-7-|
D------------|
A------------|
E------------|

Guitar solo
G--------0--0-0-------0--0-0-------------------------------|
D--0-0-0---------0-0-0-------4-4-4-4--4-4---4-4-4-4--4-4---|
A----------------------------------------------------------|
E----------------------------------------------------------|

G--------0--0-0-------0--0-0-----------------------------------------------|
D--0-0-0---------0-0-0--------4-4-4-4--4-4---4-4-4-4--4-4-4/9-9-9-9-9-9--9-|
A--------------------------------------------------------------------------|
E--------------------------------------------------------------------------|

Transition back to verse
G------4-6-7-|
D------------|
A------------|
E------------|

Verse 4x
Chorus 2x

Bridge
G---------------------------------------------------------------------|
D-----2-2-2-2-2-2-2-2-2-2-2-2-2-2-2-2-0-0-0-0-0-0-0-0-0-0-0-0-0-0-0-0-|
A---------------------------------------------------------------------|
E---------------------------------------------------------------------|

"Incense and Peppermints.."
  Incense   and Peppermints       Incense  and Peppermints
G--------------------------------------------------------------------------2-|
D--2---1---------0-----------------2---1--------0--------------2---1-----0---|
A-----------------------0------------------------------0---------------------|
E----------------------------------------------------------------------------|

"Sha la la"
G-----------------------------------------| Repeat and fade
D----0--0-0--0-0--0-0--0-2--2-2--2-2--2-2-|
A-----------------------------------------|
E-----------------------------------------|
            
Submit corrections

comments powered by Disqus
↑ Back to top | Strawberry Alarm Clock Bass for Incense And Peppermints. Lyrics for acoustic guitar and electric guitar. Tablatures and chords are parodies/interpretations of the original songs. You may use it for private study, scholarship, research or language learning purposes only