» » »

Strapping Young Lad, Relentless Tabs (ver.2)

Artists:  A B C D E F G H I J K L M N O P Q R S T U V W X Y Z # 

Relentless Tabs (ver.2)

Strapping Young Lad Tabs
 Rating:
4/5 (4 votes)
Relentless lessons Tabs too difficult? Try these video lessons and learn fast
                Song - Relentless
Artist - Strapping Young Lad
Album - Strapping Young Lad (2003)


Intro pt.1

E|-------------------------------------------------------------------|
C|-------------------------------------------------------------------|
G|-------------------------------------------------------------------|
C|-------------------------------------------------------------------|
G|-------------------------------------------------------------------|
C|-0-1-1-1-1-1-1-1-1-0-1-1-1-1-1-1-1-0-1-1-1-0-1-1-1-0-1-1-1-1-1-1-1-|

E|-------------------------------------------------------------------|
C|-------------------------------------------------------------------|
G|-------------------------------------------------------------------|
C|-------------------------------------------------------------------|
G|-------------------------------------------------------------------|
C|-0-1-1-1-1-1-1-1-1-0-1-1-1-1-1-1-1-0-1-1-1-0-1-1-1-0-1-1-1-1-1-1-1-|

E|-------------------------------------------------------------------|
C|-------------------------------------------------------------------|
G|-------------------------------------------------------------------|
C|-------------------------------------------------------------------|
G|-------------------------------------------------------------------|
C|-0-1-1-1-1-1-1-1-1-0-1-1-1-1-1-1-1-0-1-1-1-0-1-1-1-0-1-1-1-1-1-1-1-|

E|-------------------------------------------------------------------|
C|-------------------------------------------------------------------|
G|-------------------------------------------------------------------|
C|-----------------------------------------------------1---1---1---1-|
G|-----------------------------------------------------1---1---1---1-|
C|-0-1-1-1-1-1-1-1-1-0-1-1-1-1-1-1-1-0-1-1-1-0-1-1-1---1---1---1---1-|

Intro pt.2

E|-------------------------------------------------------------------|
C|-------------------------------------------------------------------|
G|-------------------------------------------------------------------|
C|-------------------------------------------------------------------|
G|-------------------------------------------------------------------|
C|-0-1-1-1-1-1-1-1-1-0-1-1-1-1-1-1-1-0-1-1-1-1-1-1-1-0-1-1-1-1-1-1-1-|

E|-------------------------------------------------------------------|
C|-------------------------------------------------------------------|
G|-------------------------------------------------------------------|
C|-------------------------------------------------------------------|
G|-------------------------------------------------------------------|
C|-0-1-1-1-1-1-1-1-1-0-1-1-1-1-1-1-1-0-1-1-1-1-1-1-1-0-1-1-1-1-1-1-1-|

E|-------------------------------------------------------------------|
C|-------------------------------------------------------------------|
G|-------------------------------------------------------------------|
C|-------------------------------------------------------------------|
G|-------------------------------------------------------------------|
C|-0-1-1-1-1-1-1-1-1-0-1-1-1-1-1-1-1-0-1-1-1-1-1-1-1-0-1-1-1-1-1-1-1-|

E|-------------------------------------------------------------------|
C|-------------------------------------------------------------------|
G|-------------------------------------------------------------------|
C|-----------------------------------------------------1---1---1---1-|
G|-----------------------------------------------------1---1---1---1-|
C|-0-1-1-1-1-1-1-1-1-0-1-1-1-1-1-1-1-0-1-1-1-1-1-1-1-0-1---1---1---1-|

Intro pt.3

E|-------------------------------------------------------------------|
C|-------------------------------------------------------------------|
G|-------------------------------------------------------------------|
C|-------------------------------------------------------------------|
G|-------------------------------------------------------------------|
C|-0-1-1-1-1-1-1-1-1-0-1-1-1-1-1-1-1-0-1-1-1-1-1-1-1-0-1-1-1-1-1-1-1-|

E|-------------------------------------------------------------------|
C|-------------------------------------------------------------------|
G|-------------------------------------------------------------------|
C|-------------------------------------------------------------------|
G|-------------------------------------------------------------------|
C|-0-1-1-1-1-1-1-1-1-0-1-1-1-1-1-1-1-0-1-1-1-1-1-1-1-0-1-1-1-1-1-1-1-|

E|-------------------------------------------------------------------|
C|-------------------------------------------------------------------|
G|-------------------------------------------------------------------|
C|-------------------------------------------------------------------|
G|-------------------------------------------------------------------|
C|-0-1-1-1-1-1-1-1-1-0-1-1-1-1-1-1-1-0-1-1-1-1-1-1-1-0-1-1-1-1-1-1-1-|

E|-------------------------------------------------------------------|
C|-------------------------------------------------------------------|
G|-------------------------------------------------------------------|
C|-----------------------------------------------------12ssssssssss0-|
G|-----------------------------------------------------12ssssssssss0-|
C|-0-1-1-1-1-1-1-1-1-0-1-1-1-1-1-1-1-0-1-1-1-1-1-1-1-0-12ssssssssss0-|

Bridge

E|-----------------------------------------------------------------|
C|-----------------------------------------------------------------|
G|-----------------------------------------------------------------|
C|-----------------------------------------------------------------|
G|-----------------------------------------------------------------|
C|-3-3-3-3-3-3-3-3-4-4-4-4-4-4-4-4-8-8-8-8-8-8-8-8-7-7-7-7-7-7-7-7-|

E|-----------------------------------------------------------------|
C|-----------------------------------------------------------------|
G|-----------------------------------------------------------------|
C|-----------------------------------------------------------------|
G|-----------------------------------------------------------------|
C|-4-4-4-4-4-4-4-4-3-3-3-3-3-3-3-3-6-0-0-0-0-0-0-0-0-0-0-0-0-0-0-0-|

E|-----------------------------------------------------------------|
C|-----------------------------------------------------------------|
G|-----------------------------------------------------------------|
C|-----------------------------------------------------------------|
G|-----------------------------------------------------------------|
C|-3-3-3-3-3-3-3-3-4-4-4-4-4-4-4-4-8-8-8-8-8-8-8-8-7-7-7-7-7-7-7-7-|

E|-----------------------------------------------------------------|
C|-----------------------------------------------------------------|
G|-----------------------------------------------------------------|
C|-------------------------------------0-----0-----0---0---0---0---|
G|-------------------------------------0-----0-----0---0---0---0---|
C|-4-4-4-4-4-4-4-4-3-3-3-3-3-3-3-3-----0-----0-----0---0---0---0---|

Pre-Verse

E|-------------------------------------------------------------------|
C|-------------------------------------------------------------------|
G|-------------------------------------------------------------------|
C|-------------------------------------------------------------------|
G|-------------------------------------------------------------------|
C|-0-1-1-1-1-1-1-1-1-0-1-1-1-1-1-1-1-0-1-1-1-1-1-1-1-0-1-1-1-1-1-1-1-|

E|-------------------------------------------------------------------|
C|-------------------------------------------------------------------|
G|-------------------------------------------------------------------|
C|-------------------------------------------------------------------|
G|-------------------------------------------------------------------|
C|-0-1-1-1-1-1-1-1-1-0-1-1-1-1-1-1-1-0-1-1-1-1-1-1-1-0-1-1-1-1-1-1-1-|

E|-------------------------------------------------------------------|
C|-------------------------------------------------------------------|
G|-------------------------------------------------------------------|
C|-------------------------------------------------------------------|
G|-------------------------------------------------------------------|
C|-0-1-1-1-1-1-1-1-1-0-1-1-1-1-1-1-1-0-1-1-1-1-1-1-1-0-1-1-1-1-1-1-1-|

E|-------------------------------------------------------------------|
C|-------------------------------------------------------------------|
G|-----------------------------------------------------4*************|
C|-------------------------------------------------------------------|
G|-----------------------------------------------------4*************|
C|-0-1-1-1-1-1-1-1-1-0-1-1-1-1-1-1-1-0-1-1-1-1-1-1-1-0---------------|

Verse 1 pt.1

E|-------------------------------------------------------------------|
C|-------------------------------------------------------------------|
G|-------------------------------------------------------------------|
C|-------------------------------------------------------------------|
G|-------------------------------------------------------------------|
C|-0-1-1-1-1-1-1-1-1-0-1-1-1-1-1-1-1-0-1-1-1-1-1-1-1-0-1-1-1-1-1-1-1-|

E|-------------------------------------------------------------------|
C|-------------------------------------------------------------------|
G|-------------------------------------------------------------------|
C|-------------------------------------------------------------------|
G|-------------------------------------------------------------------|
C|-0-1-1-1-1-1-1-1-1-0-1-1-1-1-1-1-1-0-1-1-1-1-1-1-1-0-1-1-1-1-1-1-1-|

E|-------------------------------------------------------------------|
C|-------------------------------------------------------------------|
G|-------------------------------------------------------------------|
C|-------------------------------------------------------------------|
G|-------------------------------------------------------------------|
C|-0-1-1-1-1-1-1-1-1-0-1-1-1-1-1-1-1-0-1-1-1-1-1-1-1-0-1-1-1-1-1-1-1-|

E|-------------------------------------------------------------------|
C|-------------------------------------------------------------------|
G|-----------------------------------------------------4*************|
C|-------------------------------------------------------------------|
G|-----------------------------------------------------4*************|
C|-0-1-1-1-1-1-1-1-1-0-1-1-1-1-1-1-1-0-1-1-1-1-1-1-1-0---------------|

Verse 1 pt.2

E|-------------------------------------------------------------------|
C|-------------------------------------------------------------------|
G|-------------------------------------------------------------------|
C|-------------------------------------------------------------------|
G|-------------------------------------------------------------------|
C|-0-1-1-1-1-1-1-1-1-0-1-1-1-1-1-1-1-0-1-1-1-1-1-1-1-0-1-1-1-1-1-1-1-|

E|-------------------------------------------------------------------|
C|-------------------------------------------------------------------|
G|-------------------------------------------------------------------|
C|-------------------------------------------------------------------|
G|-------------------------------------------------------------------|
C|-0-1-1-1-1-1-1-1-1-0-1-1-1-1-1-1-1-0-1-1-1-1-1-1-1-0-1-1-1-1-1-1-1-|

E|-------------------------------------------------------------------|
C|-------------------------------------------------------------------|
G|-------------------------------------------------------------------|
C|-------------------------------------------------------------------|
G|-------------------------------------------------------------------|
C|-0-1-1-1-1-1-1-1-1-0-1-1-1-1-1-1-1-0-1-1-1-1-1-1-1-0-1-1-1-1-1-1-1-|

E|-------------------------------------------------------------------|
C|-------------------------------------------------------------------|
G|-------------------------------------------------------------------|
C|-------------------------------------------------------------------|
G|-------------------------------------------------------------------|
C|-0-1-1-1-1-1-1-1-1-0-1-1-1-1-1-1-1-0-1-1-1-1-1-1-1-0-1-1-1-1-1-1-1-|

Chorus 1

E|-----------------------------------------------------------------|
C|-----------------------------------------------------------------|
G|-4-4-4-4-4-4-4-4-4-4-4-4-4-4-4-4-4-4-4-4-4-4-4-4-4-4-4-4-4-4-4-4-|
C|-----------------------------------------------------------------|
G|-4-4-4-4-4-4-4-4-4-4-4-4-4-4-4-4-4-4-4-4-4-4-4-4-4-4-4-4-4-4-4-4-|
C|-----------------------------------------------------------------|

E|-----------------------------------------------------------------|
C|-----------------------------------------------------------------|
G|-----------------------------------------------------------------|
C|-----------------------------------------------------------------|
G|-0-1----0-1----0-1--0-1--0-1-----0-1----0-1----0-1--0-1--0-1-----|
C|-0-1----0-1----0-1--0-1--0-1-----0-1----0-1----0-1--0-1--0-1-----|

E|-----------------------------------------------------------------|
C|-----------------------------------------------------------------|
G|-4-4-4-4-4-4-4-4-4-4-4-4-4-4-4-4-3-3-3-3-3-3-3-3-3-3-3-3-3-3-3-3-|
C|-----------------------------------------------------------------|
G|-4-4-4-4-4-4-4-4-4-4-4-4-4-4-4-4-4-4-4-4-4-4-4-4-4-4-4-4-4-4-4-4-|
C|-----------------------------------------------------------------|

E|-----------------------------------------------------------------|
C|-----------------------------------------------------------------|
G|-----------------------------------------------------------4****-|
C|-----------------------------------------------------------------|
G|-0-1----0-1----0-1--0-1--0-1-----0-1----0-1----0-1--0-1----4****-|
C|-0-1----0-1----0-1--0-1--0-1-----0-1----0-1----0-1--0-1----------|

Verse 2 pt.1

E|-------------------------------------------------------------------|
C|-------------------------------------------------------------------|
G|-------------------------------------------------------------------|
C|-------------------------------------------------------------------|
G|-------------------------------------------------------------------|
C|-0-1-1-1-1-1-1-1-1-0-1-1-1-1-1-1-1-0-1-1-1-1-1-1-1-0-1-1-1-1-1-1-1-|

E|-------------------------------------------------------------------|
C|-------------------------------------------------------------------|
G|-------------------------------------------------------------------|
C|-------------------------------------------------------------------|
G|-------------------------------------------------------------------|
C|-0-1-1-1-1-1-1-1-1-0-1-1-1-1-1-1-1-0-1-1-1-1-1-1-1-0-1-1-1-1-1-1-1-|

E|-------------------------------------------------------------------|
C|-------------------------------------------------------------------|
G|-------------------------------------------------------------------|
C|-------------------------------------------------------------------|
G|-------------------------------------------------------------------|
C|-0-1-1-1-1-1-1-1-1-0-1-1-1-1-1-1-1-0-1-1-1-1-1-1-1-0-1-1-1-1-1-1-1-|

E|-------------------------------------------------------------------|
C|-------------------------------------------------------------------|
G|-----------------------------------------------------4*************|
C|-------------------------------------------------------------------|
G|-----------------------------------------------------4*************|
C|-0-1-1-1-1-1-1-1-1-0-1-1-1-1-1-1-1-0-1-1-1-1-1-1-1-0---------------|

Verse 2 pt.2

E|-------------------------------------------------------------------|
C|-------------------------------------------------------------------|
G|-------------------------------------------------------------------|
C|-------------------------------------------------------------------|
G|-------------------------------------------------------------------|
C|-0-1-1-1-1-1-1-1-1-0-1-1-1-1-1-1-1-0-1-1-1-1-1-1-1-0-1-1-1-1-1-1-1-|

E|-------------------------------------------------------------------|
C|-------------------------------------------------------------------|
G|-------------------------------------------------------------------|
C|-------------------------------------------------------------------|
G|-------------------------------------------------------------------|
C|-0-1-1-1-1-1-1-1-1-0-1-1-1-1-1-1-1-0-1-1-1-1-1-1-1-0-1-1-1-1-1-1-1-|

E|-------------------------------------------------------------------|
C|-------------------------------------------------------------------|
G|-------------------------------------------------------------------|
C|-------------------------------------------------------------------|
G|-------------------------------------------------------------------|
C|-0-1-1-1-1-1-1-1-1-0-1-1-1-1-1-1-1-0-1-1-1-1-1-1-1-0-1-1-1-1-1-1-1-|

E|-------------------------------------------------------------------|
C|-------------------------------------------------------------------|
G|-------------------------------------------------------------------|
C|-------------------------------------------------------------------|
G|-------------------------------------------------------------------|
C|-0-1-1-1-1-1-1-1-1-0-1-1-1-1-1-1-1-0-1-1-1-1-1-1-1-0-1-1-1-1-1-1-1-|

Chorus 2

E|-----------------------------------------------------------------|
C|-----------------------------------------------------------------|
G|-4-4-4-4-4-4-4-4-4-4-4-4-4-4-4-4-4-4-4-4-4-4-4-4-4-4-4-4-4-4-4-4-|
C|-----------------------------------------------------------------|
G|-4-4-4-4-4-4-4-4-4-4-4-4-4-4-4-4-4-4-4-4-4-4-4-4-4-4-4-4-4-4-4-4-|
C|-----------------------------------------------------------------|

E|-----------------------------------------------------------------|
C|-----------------------------------------------------------------|
G|-----------------------------------------------------------------|
C|-----------------------------------------------------------------|
G|-0-1----0-1----0-1--0-1--0-1-----0-1----0-1----0-1--0-1--0-1-----|
C|-0-1----0-1----0-1--0-1--0-1-----0-1----0-1----0-1--0-1--0-1-----|

E|-----------------------------------------------------------------|
C|-----------------------------------------------------------------|
G|-4-4-4-4-4-4-4-4-4-4-4-4-4-4-4-4-3-3-3-3-3-3-3-3-3-3-3-3-3-3-3-3-|
C|-----------------------------------------------------------------|
G|-4-4-4-4-4-4-4-4-4-4-4-4-4-4-4-4-4-4-4-4-4-4-4-4-4-4-4-4-4-4-4-4-|
C|-----------------------------------------------------------------|

Breakdown pt.1

PM**********************************
E|---------------------------------|
C|---------------------------------|
G|---------------------------------|
C|---------------------------------|
G|---------------------------------|
C|-0-2-3-0-4-3-0-5-3-0-3-2-0-1-2-1-|

PM**********************************
E|---------------------------------|
C|---------------------------------|
G|---------------------------------|
C|---------------------------------|
G|---------------------------------|
C|-0-2-3-0-4-3-0-5-3-0-3-2-0-1-2-1-|

PM**********************************
E|---------------------------------|
C|---------------------------------|
G|---------------------------------|
C|---------------------------------|
G|---------------------------------|
C|-0-2-3-0-4-3-0-5-3-0-3-2-0-1-2-1-|

PM***************
E|---------------------------------|
C|---------------------------------|
G|---------------------------------|
C|---------------------------------|
G|---------------------------------|
C|-0-2-3-0-3-2-0-4-3-0-5-3-0-6-5-0-|

Breakdown pt.2

PM**********************************
E|---------------------------------|
C|---------------------------------|
G|---------------------------------|
C|---------------------------------|
G|---------------------------------|
C|-0-2-3-0-4-3-0-5-3-0-3-2-0-1-2-1-|

PM**********************************
E|---------------------------------|
C|---------------------------------|
G|---------------------------------|
C|---------------------------------|
G|---------------------------------|
C|-0-2-3-0-4-3-0-5-3-0-3-2-0-1-2-1-|

PM**********************************
E|---------------------------------|
C|---------------------------------|
G|---------------------------------|
C|---------------------------------|
G|---------------------------------|
C|-0-2-3-0-4-3-0-5-3-0-3-2-0-1-2-1-|

PM***************
E|---------------------------------|
C|---------------------------------|
G|---------------------------------|
C|---------------------------------|
G|---------------------------------|
C|-0-2-3-0-3-2-0-4-3-0-5-3-0-6-5-0-|

Breakdown pt.3

E|---------------------------------|
C|---------------------------------|
G|---------------------------------|
C|---------------------------------|
G|---------------------------------|
C|-0-0-0-0-000-0-0-000-000-000-000-|

Breakdown pt.4

PM**********************************
E|---------------------------------|
C|---------------------------------|
G|---------------------------------|
C|---------------------------------|
G|---------------------------------|
C|-0-2-3-0-4-3-0-5-3-0-3-2-0-1-2-1-|

PM**********************************
E|---------------------------------|
C|---------------------------------|
G|---------------------------------|
C|---------------------------------|
G|---------------------------------|
C|-0-2-3-0-4-3-0-5-3-0-3-2-0-1-2-1-|

PM**********************************
E|---------------------------------|
C|---------------------------------|
G|---------------------------------|
C|---------------------------------|
G|---------------------------------|
C|-0-2-3-0-4-3-0-5-3-0-3-2-0-1-2-1-|

PM***************
E|---------------------------------|
C|---------------------------------|
G|---------------------------------|
C|---------------------------------|
G|---------------------------------|
C|-0-2-3-0-3-2-0-4-3-0-5-3-0-6-5-0-|

Breakdown pt.5

PM**********************************
E|---------------------------------|
C|---------------------------------|
G|---------------------------------|
C|---------------------------------|
G|---------------------------------|
C|-0-2-3-0-4-3-0-5-3-0-3-2-0-1-2-1-|

PM**********************************
E|---------------------------------|
C|---------------------------------|
G|---------------------------------|
C|---------------------------------|
G|---------------------------------|
C|-0-2-3-0-4-3-0-5-3-0-3-2-0-1-2-1-|

PM**********************************
E|---------------------------------|
C|---------------------------------|
G|---------------------------------|
C|---------------------------------|
G|---------------------------------|
C|-0-2-3-0-4-3-0-5-3-0-3-2-0-1-2-1-|

PM***************
E|---------------------------------|
C|---------------------------------|
G|---------------------------------|
C|---------------------------------|
G|---------------------------------|
C|-0-2-3-0-3-2-0-4-3-0-5-3-0-6-5-0-|

E|---------------------------------|
C|---------------------------------|
G|---------------------------------|
C|---------------------------------|
G|-3m------------------------------|
C|-3m------------------------------|

Bridge 2

E|-----------------------------------------------------------------|
C|-----------------------------------------------------------------|
G|-----------------------------------------------------------------|
C|-----------------------------------------------------------------|
G|-----------------------------------------------------------------|
C|-3-3-3-3-3-3-3-3-4-4-4-4-4-4-4-4-8-8-8-8-8-8-8-8-7-7-7-7-7-7-7-7-|

E|-----------------------------------------------------------------|
C|-----------------------------------------------------------------|
G|-----------------------------------------------------------------|
C|-----------------------------------------------------------------|
G|-----------------------------------------------------------------|
C|-4-4-4-4-4-4-4-4-3-3-3-3-3-3-3-3-6-0-0-0-0-0-0-0-0-0-0-0-0-0-0-0-|

E|-----------------------------------------------------------------|
C|-----------------------------------------------------------------|
G|-----------------------------------------------------------------|
C|-----------------------------------------------------------------|
G|-----------------------------------------------------------------|
C|-3-3-3-3-3-3-3-3-4-4-4-4-4-4-4-4-8-8-8-8-8-8-8-8-7-7-7-7-7-7-7-7-|

E|-----------------------------------------------------------------|
C|-----------------------------------------------------------------|
G|-----------------------------------------------------------------|
C|-----------------------------------0m----------------------------|
G|-----------------------------------0m----------------------------|
C|-4-4-4-4-4-4-4-4-3-3-3-3-3-3-3-3-6-0m----------------------------|

Pre Chorus

E|-------------------------------------------------------------------|
C|-------------------------------------------------------------------|
G|-------------------------------------------------------------------|
C|-------------------------------------------------------------------|
G|-------------------------------------------------------------------|
C|-0-1-1-1-1-1-1-1-1-0-1-1-1-1-1-1-1-0-1-1-1-1-1-1-1-0-1-1-1-1-1-1-1-|

E|-------------------------------------------------------------------|
C|-------------------------------------------------------------------|
G|-------------------------------------------------------------------|
C|-------------------------------------------------------------------|
G|-------------------------------------------------------------------|
C|-0-1-1-1-1-1-1-1-1-0-1-1-1-1-1-1-1-0-1-1-1-1-1-1-1-0-1-1-1-1-1-1-1-|

E|-------------------------------------------------------------------|
C|-------------------------------------------------------------------|
G|-------------------------------------------------------------------|
C|-------------------------------------------------------------------|
G|-------------------------------------------------------------------|
C|-0-1-1-1-1-1-1-1-1-0-1-1-1-1-1-1-1-0-1-1-1-1-1-1-1-0-1-1-1-1-1-1-1-|

E|-------------------------------------------------------------------|
C|-------------------------------------------------------------------|
G|-------------------------------------------------------------------|
C|-------------------------------------------------------------------|
G|-------------------------------------------------------------------|
C|-0-1-1-1-1-1-1-1-1-0-1-1-1-1-1-1-1-0-1-1-1-1-1-1-1-0-1-1-1-1-1-1-1-|

Chorus 3

E|-----------------------------------------------------------------|
C|-----------------------------------------------------------------|
G|-4-4-4-4-4-4-4-4-4-4-4-4-4-4-4-4-4-4-4-4-4-4-4-4-4-4-4-4-4-4-4-4-|
C|-----------------------------------------------------------------|
G|-4-4-4-4-4-4-4-4-4-4-4-4-4-4-4-4-4-4-4-4-4-4-4-4-4-4-4-4-4-4-4-4-|
C|-----------------------------------------------------------------|

E|-----------------------------------------------------------------|
C|-----------------------------------------------------------------|
G|-4-4-4-4-4-4-4-4-4-4-4-4-4-4-4-4-3-3-3-3-3-3-3-3-3-3-3-3-3-3-3-3-|
C|-----------------------------------------------------------------|
G|-4-4-4-4-4-4-4-4-4-4-4-4-4-4-4-4-4-4-4-4-4-4-4-4-4-4-4-4-4-4-4-4-|
C|-----------------------------------------------------------------|

Outro

E|-----------------------------------------------------------------|
C|-----------------------------------------------------------------|
G|-----------------------------------------------------------------|
C|-----------------------------------------------------------------|
G|-----------------------------------------------------------------|
C|-3-3-3-3-3-3-3-3-4-4-4-4-4-4-4-4-8-8-8-8-8-8-8-8-7-7-7-7-7-7-7-7-|

E|-----------------------------------------------------------------|
C|-----------------------------------------------------------------|
G|-----------------------------------------------------------------|
C|-----------------------------------------------------------------|
G|-----------------------------------------------------------------|
C|-4-4-4-4-4-4-4-4-3-3-3-3-3-3-3-3-6-0-0-0-0-0-0-0-0-0-0-0-0-0-0-0-|

E|-----------------------------------------------------------------|
C|-----------------------------------------------------------------|
G|-----------------------------------------------------------------|
C|-----------------------------------------------------------------|
G|-----------------------------------------------------------------|
C|-3-3-3-3-3-3-3-3-4-4-4-4-4-4-4-4-8-8-8-8-8-8-8-8-7-7-7-7-7-7-7-7-|

E|-----------------------------------------------------------------|
C|-----------------------------------------------------------------|
G|-----------------------------------------------------------------|
C|-----------------------------------------------------------------|
G|-----------------------------------0-0-0-0-0-0-0-0-0-0-0-0-0-0-0-|
C|-4-4-4-4-4-4-4-4-3-3-3-3-3-3-3-3-6-0-0-0-0-0-0-0-0-0-0-0-0-0-0-0-|

Outro pt.2

E|-----------------------------------------------------------------|
C|-----------------------------------------------------------------|
G|-----------------------------------------------------------------|
C|-----------------------------------------------------------------|
G|-----------------------------------------------------------------|
C|-3-3-3-3-3-3-3-3-4-4-4-4-4-4-4-4-8-8-8-8-8-8-8-8-7-7-7-7-7-7-7-7-|

E|-----------------------------------------------------------------|
C|-----------------------------------------------------------------|
G|-----------------------------------------------------------------|
C|-----------------------------------------------------------------|
G|-----------------------------------------------------------------|
C|-4-4-4-4-4-4-4-4-3-3-3-3-3-3-3-3-6-0-0-0-0-0-0-0-0-0-0-0-0-0-0-0-|

E|-----------------------------------------------------------------|
C|-----------------------------------------------------------------|
G|-----------------------------------------------------------------|
C|-----------------------------------------------------------------|
G|-----------------------------------------------------------------|
C|-3-3-3-3-3-3-3-3-4-4-4-4-4-4-4-4-8-8-8-8-8-8-8-8-7-7-7-7-7-7-7-7-|

E|-----------------------------------------------------------------|
C|-----------------------------------------------------------------|
G|-----------------------------------------------------------------|
C|---------------------------------0m------------------------------|
G|---------------------------------0m------------------------------|
C|-4-4-4-4-4-4-4-4-3-3-3-3-3-3-3-3-0m------------------------------|
            
Submit corrections

comments powered by Disqus
↑ Back to top | Strapping Young Lad Tabs for Relentless. Lyrics for acoustic guitar and electric guitar. Tablatures and chords are parodies/interpretations of the original songs. You may use it for private study, scholarship, research or language learning purposes only