>
 >
Relentless

Relentless Guitar Tabs

Strapping Young Lad - Relentless chords, tabs, tablatures, lyrics

Guitar lessons | Add/correct | Request | Top 50 tabs Artists:  A B C D E F G H I J K L M N O P Q R S T U V W X Y Z 0-9

Relentless Guitar Tabs – Strapping Young Lad

CD, Sheet music, Poster

Do you like Relentless? Share with your friends now
TabsTabs v2
-----------------------------------------------------------------
-----------------------------------------------------------------
Tuning: C G C G C E

Bless You For Even Searching For This Song, SYL is underrated as FUCK.

Intro:
(Quadruplets on the 1st fret)                         PM-----
E|---------------------------------------------------------------|
C|---------------------------------------------------------------|
G|---------------------------------------------------------------|
C|----------------------------------------------------1-1-1-1----|
G|----------------------------------------------------1-1-1-1----|
C|-1111-1111-1111-1111-1111-1111-1111-1111-1111-1111--1-1-1-1----|

                                                      PM-----
E|---------------------------------------------------------------|
C|---------------------------------------------------------------|
G|---------------------------------------------------------------|
C|----------------------------------------------------1-1-1-1----|
G|----------------------------------------------------1-1-1-1----|
C|-1111-1111-1111-1111-1111-1111-1111-1111-1111-1111--1-1-1-1----|

E|---------------------------------------------------------------|
C|---------------------------------------------------------------|
G|---------------------------------------------------------------|
C|---------------------------------------------------------------|
G|---------------------------------------------------------------|
C|-1111-1111-1111-1111-1111-1111-1111-1111-1111-1111-1111-1111---|


Bridge:   (Tremolo Pick-------------------------------------------)
E|---------------------------------------------------------------|
C|---------------------------------------------------------------|
G|---------------------------------------------------------------|
C|---------------------------------------------------------------|
G|------------------1--0--------------------------1--0-----------|
C|--17\----3--4--3--------4--3-4-3--0----3--4--3--------4--3-4-3-|
   
    PM----------
E|---------------------------------------------------------------|
C|---------------------------------------------------------------|
G|---------------------------------------------------------------|
C|--0-0--0-0-0-0-------------------------------------------------|
G|--0-0--0-0-0-0-------------------------------------------------|
C|--0-0--0-0-0-0-------------------------------------------------|

Verse:
E|---------------------------------------------------------------|
C|---------------------------------------------------------------|
G|---------------------------------------------------------------|
C|---------------------------------------------------------------|
G|---------------------------------------------------------------|
C|-1111-1111-1111-1111-1111-1111-1111-1111-1111-1111-1111-1111---|

E|---------------------------------------------------------------|
C|---------------------------------------------------------------|
G|-----------------4---------------------------------------------|
C|-----------------x---------------------------------------------|
G|-----------------4---------------------------------------------|
C|-1111-1111-1111------------------------------------------------|

E|---------------------------------------------------------------|
C|---------------------------------------------------------------|
G|----------------------------------------------4----------------|
C|----------------------------------------------x----------------| X2
G|----------------------------------------------4----------------|
C|-1111-1111-1111-1111-1111-1111-1111-1111-1111------------------|

E|---------------------------------------------------------------|
C|---------------------------------------------------------------|
G|---------------------------------------------------------------|
C|---------------------------------------------------------------|
G|---------------------------------------------------------------|
C|-1111-1111-1111-1111-1111-1111-1111-1111-1111------------------|
 
Tremolo Pick(I'll Walk Away....)
E|---------------------------------------------------------------|
C|---------------------------------------------------------------|
G|--4------------------------------------------------------------|
C|--x----------------------------1--1--1-1-1----1--1--1-1-1------|
G|--4----------------------------1--1--1-1-1----1--1--1-1-1------|
C|-------------------------------1--1--1-1-1----1--1--1-1-1------|

Tremolo Pick(Won't Hesitate....)
E|---------------------------------------------------------------|
C|---------------------------------------------------------------|
G|--4------------------------------------------------------------|
C|--x------------------------------------------------------------|
G|--4------------------------------------------------------------|
C|---------------------------------1111-1111-1111-1111-1111-1111-|

E|---------------------------------------------------------------|
C|---------------------------------------------------------------|
G|------------------4--------------------------------------------|
C|------------------x--------------------------------------------|
G|------------------4--------------------------------------------|
C|--1111-1111-1111-----------------------------------------------|

E|---------------------------------------------------------------|
C|---------------------------------------------------------------|
G|----------------------------------------------4----------------|
C|----------------------------------------------x----------------| X2
G|----------------------------------------------4----------------|
C|-1111-1111-1111-1111-1111-1111-1111-1111-1111------------------|

Tremolo Pick(Calling You Out....)
E|---------------------------------------------------------------|
C|---------------------------------------------------------------|
G|--4------------------------------------------------------------|
C|--x----------------------------1--1--1-1-1----1--1--1-1-1------|
G|--4----------------------------1--1--1-1-1----1--1--1-1-1------|
C|-------------------------------1--1--1-1-1----1--1--1-1-1------|

Tremolo Pick(Calling....)
E|---------------------------------------------------------------|
C|---------------------------------------------------------------|
G|--4------------------------------------------------------------|
C|--x------------------------------------------------------------|
G|--4------------------------------------------------------------|
C|---------------------------------17\---------------------------|

Here's The Somewhat Tricky Part 
  PM-------------------------------------
E|---------------------------------------------------------------|
C|---------------------------------------------------------------|
G|---------------------------------------------------------------|
C|--0-3-0-0-4-0-0-5-0-0-6-0-0-5-0-0-4-0--------------------------| X3
G|--0-3-0-0-4-0-0-5-0-0-6-0-0-5-0-0-4-0--------------------------|
C|--0-3-0-0-4-0-0-5-0-0-6-0-0-5-0-0-4-0--------------------------|

E|---------------------------------------------------------------|
C|---------------------------------------------------------------|
G|---------------------------------------------------------------|
C|---------------------------------------------------------------|
G|---------------------------------------------------------------|
C|--0-3p0-0-4p0-0-5p0-0-6p0--------------------------------------|
 
 PM-------------------------------------
E|---------------------------------------------------------------|
C|---------------------------------------------------------------|
G|---------------------------------------------------------------|
C|--0-3-0-0-4-0-0-5-0-0-6-0-0-5-0-0-4-0--------------------------| X3
G|--0-3-0-0-4-0-0-5-0-0-6-0-0-5-0-0-4-0--------------------------|
C|--0-3-0-0-4-0-0-5-0-0-6-0-0-5-0-0-4-0--------------------------|

                                PM-----    PM-
E|---------------------------------------------------------------|
C|---------------------------------------------------------------|
G|---------------------------------------------------------------|
C|------------------------------0-0-0-0-0--0-0-0-0-0-0-----------|
G|------------------------------0-0-0-0-0--0-0-0-0-0-0-----------|
C|--0-3p0-0-4p0-0-5p0-0-6p0-----0-0-0-0-0--0-0-0-0-0-0-----------|
 
 PM-------------------------------------
E|---------------------------------------------------------------|
C|---------------------------------------------------------------|
G|---------------------------------------------------------------|
C|--0-3-0-0-4-0-0-5-0-0-6-0-0-5-0-0-4-0--------------------------| X3
G|--0-3-0-0-4-0-0-5-0-0-6-0-0-5-0-0-4-0--------------------------|
C|--0-3-0-0-4-0-0-5-0-0-6-0-0-5-0-0-4-0--------------------------|

E|---------------------------------------------------------------|
C|---------------------------------------------------------------|
G|---------------------------------------------------------------|
C|---------------------------------------------------------------|
G|---------------------------------------------------------------|
C|--0-3p0-0-4p0-0-5p0-0-6p0--------------------------------------|
 
 PM-------------------------------------
E|---------------------------------------------------------------|
C|---------------------------------------------------------------|
G|---------------------------------------------------------------|
C|--0-3-0-0-4-0-0-5-0-0-6-0-0-5-0-0-4-0--------------------------| X3
G|--0-3-0-0-4-0-0-5-0-0-6-0-0-5-0-0-4-0--------------------------|
C|--0-3-0-0-4-0-0-5-0-0-6-0-0-5-0-0-4-0--------------------------|

E|---------------------------------------------------------------|
C|---------------------------------------------------------------|
G|---------------------------------------------------------------|
C|--------------------------(0)----------------------------------|
G|--------------------------(0)----------------------------------|
C|--0-3p0-0-4p0-0-5p0-0-6p0-(0)----------------------------------|


   (Tremolo Pick-----------------------------------------)
E|---------------------------------------------------------------|
C|---------------------------------------------------------------|
G|---------------------------------------------------------------|
C|---------------------------------------------------------------|
G|---------------1--0--------------------------1--0--------------|
C|------3--4--3--------4--3-4-3--0----3--4--3--------4--3--------|

E|---------------------------------------------------------------|
C|---------------------------------------------------------------|
G|---------------------------------------------------------------|
C|---------------------------------------------------------------|
G|---------------------------------------------------------------|
C|-1111-1111-1111-1111-1111-1111-1111-1111-1111-1111-1111--------|

Tremolo Pick(Calling..)
E|---------------------------------------------------------------|
C|---------------------------------------------------------------|
G|--4------------------------------------------------------------|
C|--x------------------------------------------------------------|
G|--4------------------------------------------------------------|
C|---------------------------------------------------------------|

 (Tremolo Pick----------------------------------------------------)
E|---------------------------------------------------------------|
C|---------------------------------------------------------------|
G|---------------------------------------------------------------|
C|---------------------------------------------------------------| X2
G|---------------1--0--------------------------1--0--------------|
C|------3--4--3--------4--3-4-3--0----3--4--3--------4--3-4-3--0-|
   

   (Tremolo Pick-----------------------------------------)
E|---------------------------------------------------------------|
C|---------------------------------------------------------------|
G|---------------------------------------------------------------|
C|---------------------------------------------------------0-----|
G|---------------1--0--------------------------1--0--------0-----|
C|------3--4--3--------4--3-4-3--0----3--4--3--------4--3--0-----|


END





Comments


Popular Strapping Young Lad tabs & chords
Devour Bass Tabs
Aaa Tabs
Almost Again Tabs
Devour Tabs
Far Beyond Metal Tabs
In The Rainy Season Tabs
Japan Tabs
Oh My Fucking God Tabs
Oh My Fucking God 1 Tabs
Undernearth The Waves Tabs


Song lyrics



↑ Back to top | Tablatures and chords are parodies/interpretations of the original songs. You may use it for private study, scholarship, research or language learning purposes only
© 2014 AZChords.com Contact us | Privacy policy | DMCA | Add/correct tabs | Request tabs | Top 50 tabs