>
 >
Oh My Fucking God 1

Oh My Fucking God 1 Guitar Tabs

Strapping Young Lad - Oh My Fucking God 1 chords, tabs, tablatures, lyrics

Guitar lessons | Add/correct | Request | Top 50 tabs Artists:  A B C D E F G H I J K L M N O P Q R S T U V W X Y Z 0-9

Oh My Fucking God 1 Guitar Tabs – Strapping Young Lad

CD, Sheet music, Poster

Do you like Oh My Fucking God 1? Share with your friends now
TabsTabs v2
Band:  Strapping Young Lad

Copyright (c)  Century Media - 1997 (?)
Version 1.0 - October, 21 2005



.  - palm mute           /  - slide up to
\  - slide down to       ~  - vibrato
h  - hammer on           ^  - Bend
p  - pull off            Suffixes for bend
t  - tap                 f  - full bend    h - half bend
*- pinched harmonic    q  - quarter bend t - tap bend
b  - Hold bend    r release bend
x  - Stuccatto           ~  - vibrato bend
,  - slight palm mute    () - ghost note, sustained note
"  - tremolo note        <> - Trill


Tuning: C G C F A D

Riff 1 x 2

|---------------------------------------------------|
|---------------------------------------------------|
|---------------------------------------------------|
|---------------------------------------------------|
|3200000-----3200000-----3200000-----32000003200000-|
|3200000-10*-3200000-10*-3200000-10*-32000003200000-|
 .......     .......     .......     ..............

Riff 2 x2 (drop the last 320000320000 second time and replace with filler thing)

|--------------------------------------------------------------|
|--------------------------------------------------------------|
|--------------------------------------------------------------|
|-----------444--------------444------------444----------------|
|3200000-444------3200000-444----3200000-444----32000003200000-|
|3200000----------3200000--------3200000--------32000003200000-|
 .......          .......        .......        ..............


Filler Thing.

|----------|
|----------|
|----------|
|----------|
|3-0-2-0-2-|
|3-0-2-0-2-|

Riff 3 x2 (This is not right.)  Play Filler Thing 2 after the second time.
|---------------------------------|
|---------------------------------|
|---------------------------------|
|----7-------7-------7-----8---7--|
|6-4-5-4-6-4-5-4-6-4-5-4-6-6-6-5--|
|6-4---4-6-4---4-6-4---4-6---6----|

Filler thing 2!

|------------|
|------------|
|------------|
|------7-----|
|------5-4*--|
|5-6-0--0----|
 . . . ..

Riff 4 x4 (Gotta hit that 5*^ at the right spot for it to sound work. hi C-2*^ works in 
place too kinda)

|------------------------------------------------------------|
|------------------------------------------------------------|
|------------------------------------------------------------|
|------------------------------------------------------------|
|6-0-4-0-6-0-4-6-0-4-0-6-7-6-7-6-0-4-0-6-0-4-6-0-4-0-55555*^-|
|6-0-4-0-6-0-4-6-0-4-0-6-7-6-7-6-0-4-0-6-0-4-6-0-4-0---------|
 . . . . . . . . . . . . . . . . . . . . . . . . . . ....


Riff 1 x2
Riff 2 x2
Riff 3 x2
Riff 4 x2

Riff 5 x4 (Kinda hard to hear what's goin on >.<)

|------------|
|------------|
|------------|
|888-8-8--6--|
|888-8----6--|

Riff 6

-----------------------------------------|
|----------------------------------------|
|----------------------------------------|
|----------------------------------------|
|00-0-0-0-0-0-1111-00-0-0-0-0-0 000------|
|00-0-0-0-0-0-1111-00-0-0-0-0-0 000-11/4-|
 .. . . . . . .... .. . . . . . ... (^11 not 1)

Riff 5 x4
Riff 6 x2 (no slide till 2nd one)

|-----------------|
|-----------------|
|-----------------|    Riff 7 x4
|-----------------|
|0000000-00000000-|
|0000000-00000000-|
 ....... ........

Riff 8 x4 (I have absolutely no clue what's goin on here.  That's just what I play for now)

|-----------------|
|-----------------|
|------------4-5--|
|4---3---4---2-3--|
|4-4-3-4-4-4------|
|--4---4---4------|

Breakdown.  (Those are "10's" not "1's" and "0''s" btw)

|----------------------------------------------|
|----------------------------------------------|
|----------------------------------------------|
|----------------------------------------------|
|10555-10555-105555555-10555-10555-105555-8*^--|
|10555-10555-105555555-10555-10555-105555------|
 . ... . ... . ....... . ... . ... . ....

|----------------------------------------------|
|----------------------------------------------|
|----------------------------------------------|
|----------------------------------------------|
|10555-10555-105555555-10555-10555-105555-5*^--|
|10555-10555-105555555-10555-10555-105555------|
 . ... . ... . ....... . ... . ... . ....

|----------------------------------------------|
|----------------------------------------------|
|----------------------------------------------|
|----------------------------------------------|
|10555-10555-105555555-10555-10555-105555------|
|10555-10555-105555555-10555-10555-105555-6*^--|
 . ... . ... . ....... . ... . ... . ....

|----------------------------------------------|
|----------------------------------------------|
|----------------------------------------------|
|----------------------------------------------|
|10555-10555-105555555-10555-10555-105555------|
|10555-10555-105555555-10555-10555-105555-3-2--|
 . ... . ... . ....... . ... . ... . ....

 (Not sure about this)

|-------------------------------------------------------------------------|
|-------------------------------------------------------------------------|
|-------------------------------------------------------------------------|
|----5-------5-------5----------------5-------5-------5-------------------|
|1-4-3-4-1-4-3-4-1-4-3-4-1-4-3-2--1-4-3-4-1-4-3-4-1-4-3-4-1-4-------------|
|1-4---4-1-4---4-1-4---4-1-4-3-2--1-4---4-1-4---4-1-4---4-1-4-111111222333|
                             . .

|------------------------------------|
|------------------------------------|
|------------------------------------|   x2
|----9-------9-11-----9--------------|
|4-8-7-8-4-8-7-9--4-8-7-8-7-8-11-10--|
|4-8---8-4-8------4-8---8-7-8-11-10--|

It's not exactly 2 times...if you hear the song you'll get it though ("10's" and "11's" 
again)

|----------------------------------|
|----------------------------------|
|----------------------------------|  x2
|----------------------------------|
|----------------------------------|
|8-7-11-10-871110-871110-8-7-11-10-|
           ... .  ... .

|-------|
|-------|
|-------|
|-------|
|88771--|
|88771--|


Riff 5 x 4
Riff 6
Riff 5 x 4
Riff 6 x 2
Riff 1 x 2  (Kinda different this time though)

And that's the song the best I know. Definately a start.





Comments


Popular Strapping Young Lad tabs & chords
Devour Bass Tabs
Devour 1 Bass Tabs
Love? Bass Tabs
Skin Me Bass Tabs
Aaa Tabs
All Hail The New Flesh Tabs
Critic Tabs
Love? Tabs
Polyphony Tabs
Satans Ice Cream Truck Tabs


Song lyrics



↑ Back to top | Tablatures and chords are parodies/interpretations of the original songs. You may use it for private study, scholarship, research or language learning purposes only
© 2014 AZChords.com Contact us | Privacy policy | DMCA | Add/correct tabs | Request tabs | Top 50 tabs