» » »

Strapping Young Lad, Oh My Fucking God Tabs (ver.1)

Artists:  A B C D E F G H I J K L M N O P Q R S T U V W X Y Z # 

Oh My Fucking God Tabs (ver.1)

Strapping Young Lad Tabs
 Rating:
3.8/5 (5 votes)
Oh My Fucking God lessons Tabs too difficult? Try these video lessons and learn fast
                Tuning:CGCGBE
Listen to the song for where the pinch harmonicsa are.

          Riff A                      Riff A2
E-------|---------------------------|-----------------------------|-----|
B-------|---------------------------|-----------------------------|-----|
G---4:--|---------------------------|--------------------------4--|-----|
C---4:--|---------------------------|-----------------------5--4--|-----|
G-------|---------------------------|-----------------------3-----|-----|
C-------|--5--5--4--3--3--0--3--3^--|--5--5--4--3--3--0--0--------|-----|


    Riff B         Riff C                     Riff C1
E---------------|--------------------------|------------------|---------|
B---------------|--------------------------|------------------|---------|
G---------------|--------------------------|------------------|---------|
C---------7--5--|--------------------------|------------------|---------|
G---6--4--5--3--|--6--5--4--5--6--5--4--5--|--6--5--4--5------|---------|
C---6--4--------|--6--5--4--5--6--5--4--5--|--6--5--4--5--3^--|---------|


    Chorus Riff
E---------------------------------------|-------------------------------|
B---------------------------------------|-------------------------------|
G---------------------------------------|-------------------------------|
C---------------------------------------|-------------------------------|
G---8--8--8--7--8--6--8--8--8--7--8--6--|-------------------------------|
C---8--8--8--7--8--6--8--8--8--7--8--6--|-------------------------------|


    Chorus Riff 2
E------------------------------------|----------------------------------|
B------------------------------------|----------------------------------|
G------------------------------------|----------------------------------|
C------------------------------------|----------------------------------|
G---x--x--x--x--x--x--x--x--x--x--x--|----------------------------------|
C---x--x--x--x--x--x--x--x--x--x--x--|----------------------------------|


    Riff D
E------------------------r-----------------------|----------------------|
B------------------------e-----------------------|----------------------|
G------------------------s-----------------------|----------------------|
C------------------------t-----------------------|----------------------|
G---0--0--0--0--0--0--0-----0--0--0--0--0--0--0--|----------------------|
C---0--0--0--0--0--0--0-----0--0--0--0--0--0--0--|----------------------|


    Riff E
E----------------------------------------|------------------------------|
B----------------------------------------|------------------------------|
G----------------------------------------|------------------------------|
C----------------------------------------|------------------------------|
G---10--8--10--8--10--8--10--10--10--10--|------------------------------|
C---10--8--10--8--10--8--10--10--10--10--|------------------------------|

E----------------------------------------|------------------------------|
B----------------------------------------|------------------------------|
G----------------------------------------|------------------------------|
C------------------------10--10--10--10--|------------------------------|
G---10--8--10--8--10--8--8---8---8---8---|------------------------------|
C---10--8--10--8--10--8------------------|------------------------------|


    Riff F                     Riff F2
E---------------------------|-----------------------------|-------------|
B---------------------------|-----------------------------|-------------|
G---------------------------|-----------------------------|-------------|
C---------------------------|-----------------------------|-------------|
G---4--1--1--1--1--1--1--1--|-----4--1--1--1--4--1--1--1--|-------------|
C---4--1--1--1--1--1--1--1--|-----4--1--1--1--4--1--1--1--|-------------|


                       Riff G
E-------------------|--------------|------------------------------------|
B-------------------|--------------|------------------------------------|
G-------------------|--------------|------------------------------------|
C-------------------|--------------|------------------------------------|
G---4--1--1--1------|--1--4--3--4--|------------------------------------|
C---4--1--1--1--3^--|--1--4--3--4--|------------------------------------|


    Riff H
E-----------------------------------------------------------------------|
B-----------------------------------------------------------------------|
G-----------------------------------------------------------------------|
C-----------------------------------------------------------------------|
G---1--2--4--3----------------------------------------------------------|
C---1--2--4--3----------------------------------------------------------|
            
Submit corrections

comments powered by Disqus
↑ Back to top | Strapping Young Lad Tabs for Oh My Fucking God. Lyrics for acoustic guitar and electric guitar. Tablatures and chords are parodies/interpretations of the original songs. You may use it for private study, scholarship, research or language learning purposes only