» » »

Angel Son Tabs (ver.4)

Artists:  A B C D E F G H I J K L M N O P Q R S T U V W X Y Z # 

Angel Son Tabs (ver.4)

Strait Up
Rating:
0/5 (0 votes)

Hard to play? Try these video lessons and learn fast.
                This song is easy... I'm 99% sure this tab is correct....If it isn't it sounds a hell of alot like it ;)!
*=repeat

Intro.
*---------------------*---0-|
 -------0----0---0-0-0 ---0-|
 ------6----6---6-6-6- ---6-|
 -----7----7---7------ ---7-|
 ----6----6---6------- ---6-|
*---------------------*---0-|
Repeat the first part of Intro twice, then strum second part once slowly!


Verse 1(Repeat Twice):
-------0-0-0-0-0-----0-0-0-0-0-----0-0-0-0-0-0-|
-------7-7-7-7-7-----7-7-7-7-7-----7-7-7-7-7-7-|
-------6-6-6-6-6-----6-6-6-6-6-----6-6-6-6-6-6-|
----2-2-----------2-2-----------2-2------------|
----2-2-----------2-2-----------2-2------------|
----2-2-----------2-2-----------2-2------------|

Pre Chorus(Repeat 3 times):
----0-----0-----0----|
----0-----0-----0----|
----6-----6-----6----|
----7-----7-----7----|
----6-----6-----6----|
----0-----0-----0----|

Chorus(Repeat 3 times):
----0----0----0---|
----6----6----6---|
----7----7----7---|
----6----6----6---|
----0----x----0---|
----0----x----0---|


That's it...easy, huh? ;)
Well... you need the song structure, don't you?


Intro.
Verse 1
Pre Chorus
Chorus
Verse 1
Pre Chorus
Chorus x 2
Outro ( Same as Intro. but played slower)


That's all, I encourage everyone to buy the tribute album, Strait-Up, and I thank you for
viewing my tab.


James Lynn Strait
R.I.P.
1968-1998
            
Hard to play? Try these video lessons and learn fast. | Correct




comments powered by Disqus
↑ Back to top | Tablatures and chords are parodies/interpretations of the original songs. You may use it for private study, scholarship, research or language learning purposes only