>
 >
Angel Son

Angel Son Guitar Tabs

Strait Up - Angel Son chords, tabs, tablatures, lyrics

Guitar lessons | Add/correct | Request | Top 50 tabs Artists:  A B C D E F G H I J K L M N O P Q R S T U V W X Y Z 0-9

Angel Son Guitar Tabs – Strait Up

CD, Sheet music, Poster

Do you like Angel Son? Share with your friends now
TabsTabs v2
----This Isnt My tab But Is A Perfect Transcription-----

Tuning - Drop Low and High E to D, Raise B to C
Low To High - D A D G C D


Intro/Outro:
|-------0--------0-------0-------0-------0---0---0-------0---0---0-------0-------|
|-------0--------0-------0-------0-------0---0---0-------0---0---0-------0-------|
|---------5--------5-------5-------5-------5---5---5-------5---5---5-------5-----|
|----0--------0--------0-------0-------0---------------0---------------0---------|
|--3--------3--------------------------------------------------------------------|
|--------------------3-------5-------6---------------6---------------0-----------|

|------0-------0-------0-------0---0---0----0------------------------------------|
|------0-------0-------0-------0---0---0----0------------------------------------|
|--------5-------5-------5-------5---5---5--5------------------------------------|
|----0-------0-------0-------0--------------0------------------------------------|
|--------------------------3----------------3------------------------------------|
|--0-------3-------3------------------------6------------------------------------|

Riff I:
|--------0--0--0--0---0---0----0--0--0--0--0---0----0--0--0--0--0---0----------|
|--------0--0--0--0---0---0----0--0--0--0--0---0----0--0--0--0--0---0----------|
|--------17-17-17-17--16--14---14-14-14-14-12--14---15-15-15-15-14--12---------|
|--------x--x--x--x---x---x----x--x--x--x--x---x----x--x--x--x--x---x----------|
|--------15-15-15-15--14--12---12-12-12-12-10--12---13-13-13-13-12--10---------|
|-------(0)--------------------------------------------------------------------|

|--0--0--0--0---0---0------------------------------------------------------------|
|--0--0--0--0---0---0------------------------------------------------------------|
|--14-14-14-14--12--11-----------------------------------------------------------|
|--x--x--x--x---x---x------------------------------------------------------------|
|--12-12-12-12--10--9------------------------------------------------------------|
|--------------------------------------------------------------------------------|

Riff I: (rhythm guitar chords)
|--------0---------------------0--------------------0----------------------------|
|--------0---------------------0--------------------0----------------------------|
|--------7---------------------7--------------------7----------------------------|
|--------7---------------------4--------------------8----------------------------|
|--------0---------------------5--------------------5----------------------------|
|--------0---------------------4--------------------5----------------------------|

Riff II:
|--0----------------------0------------------0-----------------------------------|
|--0----------------------0------------------0-----------------------------------|
|--7----------------------3------------------2-----------------------------------|
|--x----------------------x------------------x------ repeat ---------------------|
|--5----------------------1------------------0-----------------------------------|
|--0----------------------0------------------0-----------------------------------|
 "Life is changin.."     "I can't go on"    "without..you"

Riff III:
|--0--------------------0-------------0------0---0------0-----0------------------|
|--0--------------------0-------------0------0---0------0-----0------------------|
|--7--------------------7-------------3-----/5-/-7------2-----3------------------|
|--x--------------------x-------------x------x---x------x-----x------------------|
|--5--------------------5-------------1-----/3-/-5------0-----1------------------|
|--0--------------------0-------------0------0---0------0-----0------------------|
 "You were fighting...everyday" "so..hide"


Quiet Part (Chorus):
|--0-------0---0---------0-----0----0----0-----------------------------------|
|--0-------0---0---------0-----0----0----0-----------------------------------|
|--7-------10--10-------14----15---14---15-----------------------------------|
|--x-------8---8---------x-----x----x----x-----------------------------------|
|--5-------8---8--------12----13---12---13-----------------------------------|
|--0-------0---0---------0-----0----0----0-----------------------------------|
 "As soon.."





Comments


Popular Strait Up tabs & chords
Take It Back 1 Bass Tabs
Angel Son 1 Tabs
Angels Son 2 Tabs
Catch A Spirit Tabs
Divided Tabs
Requiem Tabs
Sad Air Tabs
Sad Air 2 Tabs
Take It Back Tabs
Until Next Time Tabs


Song lyrics



↑ Back to top | Tablatures and chords are parodies/interpretations of the original songs. You may use it for private study, scholarship, research or language learning purposes only
© 2014 AZChords.com Contact us | Privacy policy | DMCA | Add/correct tabs | Request tabs | Top 50 tabs