>
 >
Angel Son 1

Angel Son 1 Guitar Tabs

Strait Up - Angel Son 1 chords, tabs, tablatures, lyrics

Guitar lessons | Add/correct | Request | Top 50 tabs Artists:  A B C D E F G H I J K L M N O P Q R S T U V W X Y Z 0-9

Angel Son 1 Guitar Tabs – Strait Up

CD, Sheet music, Poster

Do you like Angel Son 1? Share with your friends now
TabsTabs v2
Tuning(D,A,D,E,F#,D) 
OK here`s a new version of my tab, ive made ir better  
to suite all the stupid people out there who don`t know 
how to do tuning and if ya can`t get it still 
WHAT KINDA FUCKIN GUITARIST ARE YOU? 
I`ve also decided to include the bass bits even though 
i don`t play bass but it`s just a ruff guess,Don`t anyone 
try and fuckin rip off my tab! 
Well Enjoy! 

---0---0---0---0---0-0-0---0-0-0---0---0---0---0---0-0-0--0------------------- 
---4---4---4---4---4-4-4---4-4-4---4---4---4---4---4-4-4--4------------------- 
--5-5-5-5-5-5-5-5-5-5-5-5-5-5-5-5-5-5-5-5-5-5-5-5-5-5-5-5-5------------------- 
----------------------------------------------------------0------------------- 
-3---3---------------------------3---3--------------------x------------------- 
---------3---5---6-------6---------------3---5---6--------6------------------- 
 1ST guitar-            -no 2ND guitar-X1                                      

---------------------------------0-------3-------5--------6------------------- 
 Bass-Sounds like a typical sevendust effect on the bass                       

-555-54-2---333-30-23--333-32-0---222-20-------------------------------------- 
-----------------------------------------4------------------------------------ 
 1ST guitar-     -X2                                                           

-00000000---00000000---00000000---00000000------------------------------------ 
-44444444---44444444---44444444---44444444------------------------------------ 
-55555555---55555555---55555555---55555555------------------------------------ 
 2ND guitar-     -X2                                                           

---------0-0--------4-4--------5-5--------0-0--------------------------------- 
---------0-0--------4-4--------5-5--------0-0--------------------------------- 
---------0-0--------4-4--------5-5--------0-0--------------------------------- 
 Bass-     -X2                                                                 

-000000000000000000000000000000000000000000000000000000000000000000000000000-- 
-444444444444444444444444444444444444444444444444444444444444444444444444444-- 
-555555555555555555555555555555555555555555555555555555555555555555555555555-- 
-000000000000000000000000000000000000000000000000000000000000000000000000000-- 
 2nd guitar-     -1st guitar rests-Listen to the cd for struming-X2            

---------0-0--------4-4---------5-5-------0-0--------------------------------- 
---------0-0--------4-4---------5-5-------0-0--------------------------------- 
---------0-0--------4-4---------5-5-------0-0--------------------------------- 
 Bass-     -i think on the 2nd time through theres muted chords just before    

----------------------|------------------------------------------------------- 
----------------------|------------------------------------------------------- 
-3/5-5-5/3/5-5-5/3/5-5|5/111111111111111111111111111/101010101010141414141515- 
-x/x-x-x/x/x-x-x/x/x-x|x/x-x-x-x-x-x-x-x-x-x-x-x-x-x/x-x-x-x-x-x-x-x-x-x-x-x-- 
-1/3-3-3/1/3-3-3/1/3-3|3/9-9-9-9-9-9-9-9-9-9-9-9-9-9/101010101010121212121313- 
----------------------|------------------------------------------------------- 
 1ST guitar-this bitX4  these are 11`s no 1`s                                  

-000000000000000000000000000000000000000000000000000000000000000000000000000-- 
-444444444444444444444444442222222222222222244444444444444444444444444444444-- 
-555555555555555555555555553333333333333333355555555555555555555555555555555-- 
 2ND guitar-I couldn`t pick up on the bass bits                                

-0000000000000000000000000000000000000000000000000000000000000000000000000000- 
-4444444444444444444444444444444444444222222222222222222222222222222222222222- 
-5555555555555555555555555555555555555333333333333333333333333333333333333333- 
 2nd guitar-no 1st guitar-one last song bit only with lajon-X2                 

----5-------------------5------------------------5------------------------5--- 
-3---------------3----------------------3------------------------3------------ 
----------3-----------------5------------------------6------------------------ 
 Bass-     -This comes in the 2nd time the guitars played                      

-555-54-2---333-30-23--333-32-0---222-20-------------------------------------- 
-----------------------------------------4------------------------------------ 
 1ST guitar-X2                                                                 

-00000000---000000000--00000000---00000000------------------------------------ 
-44444444---444444444--44444444---44444444------------------------------------ 
-55555555---555555555--55555555---55555555------------------------------------ 
 2ND guitar-X2                                                                 

---------0-0--------4-4-------5-5--------0-0---------------------------------- 
---------0-0--------4-4-------5-5--------0-0---------------------------------- 
---------0-0--------4-4-------5-5--------0-0---------------------------------- 
 Bass-X2                                                                       

-000000000000000000000000000000000000000000000000000000000000000000000000000-- 
-444444444444444444444444444444444444222222222222222222222222222222222222222-- 
-555555555555555555555555555555555555333333333333333333333333333333333333333-- 
 2ND guitar-1ST guitar rests-I have a new life now bit-                        

-000000000000000000000000000000000000000000000000000000000000000000000000000-- 
-444444444444444444444444444444444444444444444444444444444444444444444444444-- 
-555555555555555555555555555555555555555555555555555555555555555555555555555-- 
 2ND guitar continued-X2                                                       

-000000000000000000000004444444444444444444455555555555555555555550000000000-- 
-000000000000000000000004444444444444444444455555555555555555555550000000000-- 
 Bass-Just strumming away there-X2                                             

-000000000000000000000000000000000000000000000000000000000000000000000000000-- 
-444444444444444444444444444444444444422222222222222222222222222222222222222-- 
-555555555555555555555555555555555555533333333333333333333333333333333333333-- 
 2nd guitar-one last song bit only with lajon singing-X2                       

-------5---------------------5------------------------5-------------------5--- 
-3-----------------3------------------------3-------------------3------------- 
---------3-----------------------5----------------------6--------------------- 
 Bass-comes in the 2nd time the guitars played-X1                              

-000000000000000000000000000000000000000000000000000000000000000000000000000-- 
-444444444444444444444444444444444442222222222222222222222222222222222222222-- 
-555555555555555555555555555555555553333333333333333333333333333333333333333-- 
-xxxxxxxxxxxxxxxxxxxxxxxxxxxxxxxxxxxxxxxxxxxxxxxxxxxxxxxxxxxxxxxxxxxxxxxxxxx-- 
-333333333333333333333333333333333331111111111111111111111111111111111111111-- 
 1st guitar-lots a strumming fun- i think it goes bout X4                      

------5----------------------5------------------------5--------------------5-- 
-3-----------------3-----------------------3-----------------------3---------- 
----------3--------------------5------------------------6--------------------- 
 2nd guitar-just plays shit like this throughout it                            

-000000000000000004444444444444444444000000000000000000055555555555555555555-- 
-000000000000000004444444444444444444000000000000000000055555555555555555555-- 
 Bass-dont ask me i dont play bass                                             

----0---0---0---0---0-0-0-0-0------------------------------------------------- 
----4---4---4---4---4-4-4-4-4-4-4-4-4----------------------------------------- 
---5-5-5-5-5-5-5-5-5-5-5-5-5-5-5-5-5------------------------------------------ 
--3---3----------------------------------------------------------------------- 
----------3---5---6----------------------------------------------------------- 
 1st guitar- end riff





Comments


Popular Strait Up tabs & chords
Take It Back 1 Bass Tabs
Angel Son Tabs
Angels Son 3 Tabs
Divided Tabs
Funeral Flights Tabs
Requiem Tabs
Sad Air Tabs
Starlit Eyes Tabs
Take It Back Tabs
Until Next Time Tabs


Song lyrics



↑ Back to top | Tablatures and chords are parodies/interpretations of the original songs. You may use it for private study, scholarship, research or language learning purposes only
© 2014 AZChords.com Contact us | Privacy policy | DMCA | Add/correct tabs | Request tabs | Top 50 tabs