» » »

Straight Line Stitch, What You Do To Me Tabs (ver.2)

Artists:  A B C D E F G H I J K L M N O P Q R S T U V W X Y Z # 

What You Do To Me Tabs (ver.2)

Straight Line Stitch Tabs
 Rating:
4.2/5 (5 votes)
What You Do To Me lessons Tabs too difficult? Try these video lessons and learn fast
                                    _____________________________    
                         Tab by: Arun Sookdeo
                    _____________________________     


Band: Stright line stitch
Drop D: (Db Ab Db Gb Bb eb)

 
Verse        (acoustic distortion)
e|-----------------------------------------|
B|-----------------------------------------|
G|-----------------------------------------| 
D|--99999999--33333333--55555555--77777777-| X4
A|--99999999--33333333--55555555--55555555-|
D|--99999999--33333333--55555555-----------|

e|-------------------------------------------------------------------------|
B|-------------------------------------------------------------------------|
G|-------------------------------------------------------------------------| 
D|--9999999999999999--3333333333333333--5555555555555555--7777777777777777-| X1
A|--9999999999999999--3333333333333333--5555555555555555--5555555555555555-|
D|--9999999999999999--3333333333333333--5555555555555555-------------------|

 Chorus         (heavy distortion) 
e|-----------------------------------------|
B|-----------------------------------------|
G|-----------------------------------------| 
D|--99999999--33333333--55555555--77777777-| X4
A|--99999999--33333333--55555555--55555555-|
D|--99999999--33333333--55555555-----------|

Verse        (acoustic distortion)
e|-----------------------------------------|
B|-----------------------------------------|
G|-----------------------------------------| 
D|--99999999--33333333--55555555--77777777-| X4
A|--99999999--33333333--55555555--55555555-|
D|--99999999--33333333--55555555-----------|

e|-------------------------------------------------------------------------|
B|-------------------------------------------------------------------------|
G|-------------------------------------------------------------------------| 
D|--9999999999999999--3333333333333333--5555555555555555--7777777777777777-| X1
A|--9999999999999999--3333333333333333--5555555555555555--5555555555555555-|
D|--9999999999999999--3333333333333333--5555555555555555-------------------|

 Chorus         (heavy distortion) 
e|-----------------------------------------|
B|-----------------------------------------|
G|-----------------------------------------| 
D|--99999999--33333333--55555555--77777777-| X4
A|--99999999--33333333--55555555--55555555-|
D|--99999999--33333333--55555555-----------|

Bridge
e|--------------------------|
B|--------------------------|
G|--------------------------| 
D|--9------------3333-5555--| X2
A|--9-(ring out)-3333-5555--|
D|--9------------3333-5555--|

e|--------------------------|
B|--------------------------|
G|--------------------------| 
D|-10----9----10-----9------| X4
A|-10-x8-9-x8-10-x8--9-x8---|
D|-10----9----10-----9----9-|    D|-0-(ring out)-|


e|-------------|-----------|
B|-------------|-----------|
G|-------------|-----------| 
D|--9--3--5--0-|--9--3--5--| 
A|--9--3--5--0-|--9--3--5--|
D|--9--3--5--0-|--9--3--5--|
                     (ring out each chord)

        (acoustic distortion)
e|-----------------------------------------|
B|-----------------------------------------|
G|-----------------------------------------| 
D|--99999999--33333333--55555555--77777777-| X1
A|--99999999--33333333--55555555--55555555-|
D|--99999999--33333333--55555555-----------|


 Chorus         (heavy distortion) 
e|-----------------------------------------|
B|-----------------------------------------|
G|-----------------------------------------| 
D|--99999999--33333333--55555555--77777777-| X8
A|--99999999--33333333--55555555--55555555-|
D|--99999999--33333333--55555555-----------|

Outro
e|--------------------------|
B|--------------------------|
G|--------------------------| 
D|--9------------3333-5555--| X2
A|--9-(ring out)-3333-5555--|
D|--9------------3333-5555--|
            
Submit corrections

comments powered by Disqus
↑ Back to top | Straight Line Stitch Tabs for What You Do To Me. Lyrics for acoustic guitar and electric guitar. Tablatures and chords are parodies/interpretations of the original songs. You may use it for private study, scholarship, research or language learning purposes only