>
 >
What You Do To Me

What You Do To Me Guitar Tabs

Straight Line Stitch - What You Do To Me chords, tabs, tablatures, lyrics

Guitar lessons | Add/correct | Request | Top 50 tabs Artists:  A B C D E F G H I J K L M N O P Q R S T U V W X Y Z 0-9

What You Do To Me Guitar Tabs – Straight Line Stitch

CD, Sheet music, Poster

Do you like What You Do To Me? Share with your friends now
TabsTabs v2
12/18/2010

This song is easy to play... no one had the correct version so I decided to tab it out.

Intro/Verse 1: (Light distortion - Repeat 5 Times)
C-------------------------------------------------------------------------|
G-------------------------------------------------------------------------|
D#--9-9-9-9-9-9-9-9--5-5-5-5-5-5-5-5--2-2-2-2-2-2-2-2--7-7-7-7-7-7-7-7----|
A#--7-7-7-7-7-7-7-7--3-3-3-3-3-3-3-3--0-0-0-0-0-0-0-0--5-5-5-5-5-5-5-5----|
F---7-7-7-7-7-7-7-7--3-3-3-3-3-3-3-3--0-0-0-0-0-0-0-0--5-5-5-5-5-5-5-5----|
A#--7-7-7-7-7-7-7-7--3-3-3-3-3-3-3-3--0-0-0-0-0-0-0-0--5-5-5-5-5-5-5-5----|

Pre-Chorus: (Light Distortion - Play once)
C----------------------------------------------------------------------------------|
G----------------------------------------------------------------------------------|
D#---------------------------------------------------------------------------------|
A#---3-3--3-3--3-3--3--3-3---5-5--5-5--5-5--5-5--5-5--3-3--3-3--3-3--3--3-3--3-0---|
F----3-3--3-3--3-3--3--3-3---5-5--5-5--5-5--5-5--5-5--3-3--3-3--3-3--3--3-3--3-0---|
A#---3-3--3-3--3-3--3--3-3---5-5--5-5--5-5--5-5--5-5--3-3--3-3--3-3--3--3-3--3-0---|

Chorus: (Play 4 times - Use Full Distortion)
C-------------------------------------------------------------------------|
G-------------------------------------------------------------------------|
D#------------------------------------------------------------------------|
A#--7-7-7-7-7-7-7-7--3-3-3-3-3-3-3-3--0-0-0-0-0-0-0-0--5-5-5-5-5-5-5-5----|
F---7-7-7-7-7-7-7-7--3-3-3-3-3-3-3-3--0-0-0-0-0-0-0-0--5-5-5-5-5-5-5-5----|
A#--7-7-7-7-7-7-7-7--3-3-3-3-3-3-3-3--0-0-0-0-0-0-0-0--5-5-5-5-5-5-5-5----|

Verse 2:  (Light distortion - Play 5 times)
C-------------------------------------------------------------------------|
G-------------------------------------------------------------------------|
D#--9-9-9-9-9-9-9-9--5-5-5-5-5-5-5-5--2-2-2-2-2-2-2-2--7-7-7-7-7-7-7-7----|
A#--7-7-7-7-7-7-7-7--3-3-3-3-3-3-3-3--0-0-0-0-0-0-0-0--5-5-5-5-5-5-5-5----|
F---7-7-7-7-7-7-7-7--3-3-3-3-3-3-3-3--0-0-0-0-0-0-0-0--5-5-5-5-5-5-5-5----|
A#--7-7-7-7-7-7-7-7--3-3-3-3-3-3-3-3--0-0-0-0-0-0-0-0--5-5-5-5-5-5-5-5----|

Pre-Chorus: (Light Distortion - Play once)
C----------------------------------------------------------------------------------|
G----------------------------------------------------------------------------------|
D#---------------------------------------------------------------------------------|
A#---3-3--3-3--3-3--3--3-3---5-5--5-5--5-5--5-5--5-5--3-3--3-3--3-3--3--3-3--3-0---|
F----3-3--3-3--3-3--3--3-3---5-5--5-5--5-5--5-5--5-5--3-3--3-3--3-3--3--3-3--3-0---|
A#---3-3--3-3--3-3--3--3-3---5-5--5-5--5-5--5-5--5-5--3-3--3-3--3-3--3--3-3--3-0---|

Chorus: (Play 4 times - Use Full Distortion)
C-------------------------------------------------------------------------|
G-------------------------------------------------------------------------|
D#------------------------------------------------------------------------|
A#--7-7-7-7-7-7-7-7--3-3-3-3-3-3-3-3--0-0-0-0-0-0-0-0--5-5-5-5-5-5-5-5----|
F---7-7-7-7-7-7-7-7--3-3-3-3-3-3-3-3--0-0-0-0-0-0-0-0--5-5-5-5-5-5-5-5----|
A#--7-7-7-7-7-7-7-7--3-3-3-3-3-3-3-3--0-0-0-0-0-0-0-0--5-5-5-5-5-5-5-5----|

Interlude/Breakdown:
C-------------------------------------------------|
G-------------------------------------------------|
D#--------10-10-10-10-12--12--12--12--------------|
A#--0---------------------------------------------|
F---0-----8--8--8--8--10--10--10--10--------------|
A#--0---------------------------------------------|

C------------------------------------|
G------------------------------------|
D#--------10-10-10-10-12--12--15-----|
A#--0--------------------------------|
F---0-----8--8--8--8--10--10--13-----|
A#--0--------------------------------|

C-----------------------------------------------------------------------|
G-----------------------------------------------------------------------|
D#----------------------------------------------------------------------|
A#----------------------------------------------------------------------|
F--8-8-8-7-7-7-10-10-10-10-10-10-10-10----------------------------------|
A#-------------------------------------8-8-8-8-8-8-8-8-7-7-7-7-7-7-7-7--|

C-----------------------------------------------------------------------|
G-----------------------------------------------------------------------|
D#----------------------------------------------------------------------|
A#-------------------------------------------------------------7-7-7-7--|
F--8-8-8-7-7-7-10-10-10-10-10-10-10-10-----------------7-7-7-7-7-7-7-7--|
A#-------------------------------------8-8-8-8-8-8-8-8-7-7-7-7-7-7-7-7--|

C---------------------------------------------------------------|
G---------------------------------------------------------------|
D#--14-14-14-14-12-12-12-12-15-15-15-15-10-10-10-10-9--9--9--9--|
A#--------------------------------------------------------------|
F---12-12-12-12-10-10-10-10-13-13-13-13-8--8--8--8--7--7--7--7--|
A#--------------------------------------------------------------|

C---------------------------------------------------------------|
G---------------------------------------------------------------|
D#--14-14-14-14-12-12-12-12-15-15-15-15-10-10-10-10-9--9--9--9--|
A#--------------------------------------------------------------|
F---12-12-12-12-10-10-10-10-13-13-13-13-8--8--8--8--7--7--7--7--|
A#--------------------------------------------------------------|

C-----------------------------|
G-----------------------------|
D#------5--7--5-----5-7-10----|
A#---0-----------0------------|
F----0--3--5--3--0--3-5-8-----|
A#---0-----------0------------|

Play once:
C-------------------------------------------------------------------------|
G-------------------------------------------------------------------------|
D#--9-9-9-9-9-9-9-9--5-5-5-5-5-5-5-5--2-2-2-2-2-2-2-2--7-7-7-7-7-7-7-7----|
A#--7-7-7-7-7-7-7-7--3-3-3-3-3-3-3-3--0-0-0-0-0-0-0-0--5-5-5-5-5-5-5-5----|
F---7-7-7-7-7-7-7-7--3-3-3-3-3-3-3-3--0-0-0-0-0-0-0-0--5-5-5-5-5-5-5-5----|
A#--7-7-7-7-7-7-7-7--3-3-3-3-3-3-3-3--0-0-0-0-0-0-0-0--5-5-5-5-5-5-5-5----|


Chorus: (Play 8 times - Use Full Distortion)
C-------------------------------------------------------------------------|
G-------------------------------------------------------------------------|
D#------------------------------------------------------------------------|
A#--7-7-7-7-7-7-7-7--3-3-3-3-3-3-3-3--0-0-0-0-0-0-0-0--5-5-5-5-5-5-5-5----|
F---7-7-7-7-7-7-7-7--3-3-3-3-3-3-3-3--0-0-0-0-0-0-0-0--5-5-5-5-5-5-5-5----|
A#--7-7-7-7-7-7-7-7--3-3-3-3-3-3-3-3--0-0-0-0-0-0-0-0--5-5-5-5-5-5-5-5----|

Outro: (Play once)
C------------------------------|
G------------------------------|
D#-----------------------------|
A#--0-----8-8-8-8-10-10-10-10--|
F---0-----8-8-8-8-10-10-10-10--|
A#--0-----8-8-8-8-10-10-10-10--|

C--------------------------------------||
G--------------------------------------||
D#-------------------------------------||
A#--0-----8-8-8-8-10-10-10-10--13-13---||
F---0-----8-8-8-8-10-10-10-10--13-13---||
A#--0-----8-8-8-8-10-10-10-10--13-13---||

That's the end! Good luck!





Comments


Popular Straight Line Stitch tabs & chords
Seneca Tragedy Chords
Conversion Tabs
Eucharist Intro Tabs
Remission Tabs
Remission Intro Tabs
What You Do To Me 1 Tabs
Yesterdays Gone Tabs
Yesterdays Gone Intro Tabs
Yesterdays Gone Intro 1 Tabs


Song lyrics



↑ Back to top | Tablatures and chords are parodies/interpretations of the original songs. You may use it for private study, scholarship, research or language learning purposes only
© 2014 AZChords.com Contact us | Privacy policy | DMCA | Add/correct tabs | Request tabs | Top 50 tabs