» » »

Orchids Tabs (ver.6)

Artists:  A B C D E F G H I J K L M N O P Q R S T U V W X Y Z # 

Orchids Tabs (ver.6)

Stone Sour
Rating:
0/5 (0 votes)

Hard to play? Try these video lessons and learn fast.
                
Tuning: c# 
        g# 
	e
	b
	F#
	B


LEGEND: 
        slide down = \ 
        slide up   = / 
        hammer     = h 
        PM         = Palm Mute
        TP         = Tremolo Picking  


     		         		         2X	       
||-------------------------------------------------||
||-------------------------------------------------||
||-------------------------------------------------||
||-------------------------------------------------||
||--55-5^6--5---55-5^8--6---55-5^6--5--5---5-5^8-6-||
||-0-----------0-----------0------------0-5--------||
                                                        
            3X 	            1X	
||-------------||--------------||
||-------------||--------------||
||-------------||--------------||     (3X)
||-00000--0-00-||-00000--1h0-0-||
||-00000--0-00-||-00000--------||
||-00000--0-00-||-00000--------||
 PM.................... 


                       3X                          1X    
||----------------------||--------------------------||
||----------------------||--------------------------||
||----------------------||--------------------------||
||----------------------||--------------------------||  
||-5--3--6-6/8--5--3--6-||-5--3--6-6/8--5--3--6-\-/-||
||----------------------||--------------------------||
 TP.............................................
 

                 3X               1X  
||----------------||----------------||
||----------------||----------------||
||----------------||----------------|| (2X)
||-0--00-1--0-6-5-||-3---33---3-333-||
||-0--00-1--0-6-5-||-3---33---3-333-||
||-0--00-1--0-6-5-||-3---33---3-333-||



                  2X
||-----------------||
||-----------------||
||-----------------||
||-0--000-0-000000-||
||-0--000-0-000000-||
||-0--000-0-000000-||
 PM...............  


            3X 	            1X	
||-------------||--------------||
||-------------||--------------||
||-------------||--------------||     (2X)
||-00000--0-00-||-00000--1h0-0-||
||-00000--0-00-||-00000--------||
||-00000--0-00-||-00000--------||
 PM.................... 


                     3X                          1X    
||----------------------||--------------------------||
||----------------------||--------------------------||
||----------------------||--------------------------||
||----------------------||--------------------------||  
||-5--3--6-6/8--5--3--6-||-5--3--6-6/8--5--3--6-\-/-||
||----------------------||--------------------------||
TP.............................................

 
                 3X               1X  
||----------------||----------------||
||----------------||----------------||
||----------------||----------------|| (2X)
||-0--00-1--0-6-5-||-3---33---3-333-||
||-0--00-1--0-6-5-||-3---33---3-333-||
||-0--00-1--0-6-5-||-3---33---3-333-||



                                                  1X 
||-------------------------------------------------||
||-------------------------------------------------||
||-------------------------------------------------||
||-0-----------------------0-----------------------||
||-0-----------------------0-----------------------||
||-0-----------------------0-----------------------||
||                                                 ||
||                                                 ||
||-------------------------------------------------||
||-------------------------------------------------||
||-------------------------------------------------||
||-------------------------------------------------||
||--55-5^6--5---55-5^8--6---55-5^6--5--5---5-5^8-6-||
||-0-----------0-----------0------------0-5--------||


                                                 1X 
||-16^17-------------------------------------------||
||-------------------------------------------------||
||-------------------------------------------------||
||-------------------------------------------------||
||-------------------------------------------------||
||-------------------------------------------------||
||                                                 ||
||                                                 ||
||-------------------------------------------------||
||-------------------------------------------------||
||-------------------------------------------------||
||-------------------------------------------------||
||--55-5^6--5---55-5^8--6---55-5^6--5--5---5-5^8-6-||
||-0-----------0-----------0------------0-5--------||

                                                          1X  
||---------------------------------- ~~ --------------------||
||-3-4-3----4-6-4---3-4-3----3-6-4-- ~~ ----3-4-3-----4-6-4-||
||--------------------------2------- ~~ ---2----------------||
||-------------------------0-------- ~~ --0-----------------||
||---------------------------------- ~~ --------------------||
||---------------------------------- ~~ --------------------||
                                                                   
		
              3X              1X
||-------------||--------------||
||-------------||--------------||
||-------------||--------------||   (4X)
||-00000--0-00-||-00000--1h0-0-||  
||-00000--0-00-||-00000--------||
||-00000--0-00-||-00000--------||
 PM...........  PM.....        


                      3X                          1X    
||----------------------||--------------------------||
||----------------------||--------------------------||
||----------------------||--------------------------||
||----------------------||--------------------------||  
||-5--3--6-6/8--5--3--6-||-5--3--6-6/8--5--3--6-\-/-||
||----------------------||--------------------------||
 TP.............................................


  3X               1X  
||----------------||----------------||
||----------------||----------------||
||----------------||----------------|| (2X)
||-0--00-1--0-6-5-||-3---33---3-333-||
||-0--00-1--0-6-5-||-3---33---3-333-||
||-0--00-1--0-6-5-||-3---33---3-333-||

                                                                      
   w/riff01                                                  1X
||-------------------------------------------------------------||
||-3-4-3--4-6-4--3-4-3----3-6-4--3-4-2---3-6-4----3-4-3----6-4-||
||-----------------------2--------------2--------2--------2----||
||----------------------0--------------0--------0--------0-----||
||-------------------------------------------------------------||
||-------------------------------------------------------------||

           riff01 8X
||-----------------||
||-----------------||
||-----------------||
||-0--000-0-000000-||
||-0--000-0-000000-||
||-0--000-0-000000-||
 PM...............
            
Hard to play? Try these video lessons and learn fast. | Correct




comments powered by Disqus
↑ Back to top | Tablatures and chords are parodies/interpretations of the original songs. You may use it for private study, scholarship, research or language learning purposes only