» » »

Stone Sour, Orchids Tabs (ver.2)

Artists:  A B C D E F G H I J K L M N O P Q R S T U V W X Y Z # 

Orchids Tabs (ver.2)

Stone Sour Tabs
 Rating:
4/5 (4 votes)
Orchids lessons Tabs too difficult? Try these video lessons and learn fast
                Tuning: B F# B E G# C#

h - Hammer on
p - Pull off
PM - Palm mute


Intro (clean)
|-------------------|
|-------------------|
|-------------------| x4
|-----------4-4h5-4-|
|-5-5h6-5-----------|
|-------------------|


Intro/Verse - Repeat 3 times
|---------------|     |--------|
|---------------|     |--------| 
|---------------| x4  |--------| x1 
|-0--0-0--0-0-0-|     |-1p0----|
|-0--0-0--0-0-0-|     |------5-|
|-0--0-0--0-0-0-|     |--------|


Pre-chorus
|-------------------|
|-------------------|
|-7-5-7--10---7-5-7-| x4
|-7-5-7--10---7-5-7-|
|-5-3-5---8---5-3-5-|
|-------------------|


Chorus - Repeat 2 times
|-------------|     |-----|
|-------------|     |-----|
|-------------| x3  |-----| x1
|-0-0-1-1-6-5-|     |-3-3-|
|-0-0-1-1-6-5-|     |-3-3-|
|-0-0-1-1-6-5-|     |-3-3-|


Bridge 1
|-----------------------|
|-----------------------|
|-----------------------| x2
|-0--0-0-0-0-0--0-0-0-0-|
|-0--0-0-0-0-0--0-0-0-0-|
|-0--0-0-0-0-0--0-0-0-0-|
PM-  - - - - -  - - - -


Chorus - Repeat 2 times
|---------------|     |--------|
|---------------|     |--------| 
|---------------| x4  |--------| x1
|-0--0-0--0-0-0-|     |-1p0----|
|-0--0-0--0-0-0-|     |------5-|
|-0--0-0--0-0-0-|     |--------|


Pre-chorus
|-------------------|
|-------------------|
|-7-5-7--10---7-5-7-| x4
|-7-5-7--10---7-5-7-|
|-5-3-5---8---5-3-5-|
|-------------------|


Chorus - Repeat 2 times
|-------------|     |-----|
|-------------|     |-----|
|-------------| x3  |-----| x1
|-0-0-1-1-6-5-|     |-3-3-|
|-0-0-1-1-6-5-|     |-3-3-|
|-0-0-1-1-6-5-|     |-3-3-|


Bridge 2
|-------------------|
|-------------------|
|-------------------| x4
|-----------4-4h5-4-|
|-5-5h6-5-----------|
|-------------------|


Repeat 4 times
|---------------|     |--------|
|---------------|     |--------| 
|---------------| x4  |--------| x1
|-0--0-0--0-0-0-|     |-1p0----|
|-0--0-0--0-0-0-|     |------5-|
|-0--0-0--0-0-0-|     |--------|


Pre-chorus
|-------------------|
|-------------------|
|-7-5-7--10---7-5-7-| x4
|-7-5-7--10---7-5-7-|
|-5-3-5---8---5-3-5-|
|-------------------|


Chorus - Repeat 2 times
|-------------|     |-----|
|-------------|     |-----|
|-------------| x3  |-----| x1
|-0-0-1-1-6-5-|     |-3-3-|
|-0-0-1-1-6-5-|     |-3-3-|
|-0-0-1-1-6-5-|     |-3-3-|


Outro
|-----------------------|
|-----------------------|
|-----------------------| x8
|-0--0-0-0-0-0--0-0-0-0-|
|-0--0-0-0-0-0--0-0-0-0-|
|-0--0-0-0-0-0--0-0-0-0-|
PM-  - - - - -  - - - -
            
Submit corrections

comments powered by Disqus
↑ Back to top | Stone Sour Tabs for Orchids. Lyrics for acoustic guitar and electric guitar. Tablatures and chords are parodies/interpretations of the original songs. You may use it for private study, scholarship, research or language learning purposes only