» » »

Stone Sour, Made Of Scars Tabs (ver.2)

Artists:  A B C D E F G H I J K L M N O P Q R S T U V W X Y Z # 

Made Of Scars Tabs (ver.2)

Stone Sour Tabs
 Rating:
4/5 (4 votes)
Made Of Scars lessons Tabs too difficult? Try these video lessons and learn fast
                Stone Sour
Made of Scars
Come What(ever) May

Standerd Tuning

/= Slide
.= Palm Mute
b= bend

Intro
Both Guitars
----------------------|
----------------------|
----------------------|
--9/7/9---------------|
--7/5/7---------------|
----------------------|x12

Verse
Both Guitars
----------------------|
----------------------|
----------------------|
----------------------|
888888--999999--------|
888888--999999--------|x4
......  ......
Both Guitars
( that a 15 not 1's nad 5's)
----------------------|
----------------------|
----------------------|
----------------------|
88888-99999/15/0------|x4

Pre-Chorus

Both Guitars
---------------------------------|
---------------------------------|
---------------------------------|
-999997--77777-8-999997--7777712-|
-777775--5555510-999995--5555510-|
---------------------------------|x1

into is the chorus

verse

Pre-Chorus

Chorus

Brake Down

Both Guitars
-------------------------------|
-------------------------------|
-------------------------------|
9999999777777999999121212121212
7777777555555777777101010101010
-------------------------------x12

Both Guitars (Guitar ends at  5x)
-------------------------------|
-------------------------------|
-------------------------------|
999--7-7777-8-9----------------|
777--5-555510-7----------------|
-------------------------------|x8

Guitar 2

--------------------------------|
---1213121312131213121312131213-|
--------------------------------|
--------------------------------|
--------------------------------|
--------------------------------|x3

Both Guitars (im not too sure if this part is right)
--------------------------------|
--------------------------------|
--------------------------------|
55555555533333333333333311111113
55555555533333333333333311111113
55555555533333333333333311111113
                               b

verse
Both Guitars
( that a 15 not 1's nad 5's)
----------------------|
----------------------|
----------------------|
----------------------|
88888-99999/15/0------|x4

Chorus

outro

Both Guitars
-------------------------------|
-------------------------------|
-------------------------------|
9999999777777999999121212121212
7777777555555777777101010101010
-------------------------------
            
Submit corrections

comments powered by Disqus
↑ Back to top | Stone Sour Tabs for Made Of Scars. Lyrics for acoustic guitar and electric guitar. Tablatures and chords are parodies/interpretations of the original songs. You may use it for private study, scholarship, research or language learning purposes only